» » »

Guns N Roses, Welcome To The Jungle Tabs (ver.2)

Artists:  A B C D E F G H I J K L M N O P Q R S T U V W X Y Z # 

Welcome To The Jungle Tabs (ver.2)

Guns N Roses Tabs
 Rating:
4/5 (4 votes)
Welcome To The Jungle lessons Tabs too difficult? Try these video lessons and learn fast
                Welcome To The Jungle - Intro
Performed by Guns'n Roses
Tab written by claw_daddy
Feb. 2, 2001

This is the main riff in the beginning and throughout 
parts of the song, followed by this is a simplified 
version of a riff that a second guitar plays. Then the
second guitar plays some chords. The main riff is played 
w/ heavy distortion and delay (wicked, huh?). Then there 
are some chords to strum along with. It's a fun song to 
play even alone.

E-----------------|----------------------------------|
B-----------------|----------------------------------|
G-----------------|----------------------------------|
D--8-8-8---8-8-8--|--8-8-8-6-8-6---6-----------------|
A-----------------|--------------8---8-6-8-6---6-----|
E-----------------|--------------------------9---9-6-|

E---------------------------------------|
B---------------------------------------|
G---------6---8--8b--8-------8\6--------|
D--/8---8---8------------/8-------8--6--|
A---------------------------------------|
E---------------------------------------|

   A#    G#    C#    D#  G#  A#
E--x-----x-----x-----x---x---x---|
B--x-----x-----x-----7---x---x---|
G--7-----5-----10----8---5---7---|
D--8-----6-----11----8---6---8---|
A--8-----6-----11----6---6---8---|
E--6-----4-----9-----x---4---6---|

*When the last A# is played this riff is played with it:

E---------------------------|
B------------------6-8b-8r--|
G--------------6-8----------|
D----------6-8--------------|
A------6-8------------------|
E--6-6----------------------|

After that last note the song gets crazy so I'll try and work on that.
I hope you enjoyed using this tab because it's actually the first one 
I've ever written, I've read thousands though, so I know what I'm doing.
            
Submit corrections

comments powered by Disqus
↑ Back to top | Guns N Roses Tabs for Welcome To The Jungle. Lyrics for acoustic guitar and electric guitar. Tablatures and chords are parodies/interpretations of the original songs. You may use it for private study, scholarship, research or language learning purposes only