» » »

Guns N Roses, Welcome To The Jungle Bass tabs (ver.2)

Artists:  A B C D E F G H I J K L M N O P Q R S T U V W X Y Z # 

Welcome To The Jungle Bass tabs (ver.2)

Guns N Roses Tabs
 Rating:
4/5 (4 votes)
Welcome To The Jungle lessons Tabs too difficult? Try these video lessons and learn fast
                IM SO SORRY !! PLEASE RAT THIS TAB 1!! ITS 100% WRONG !!!


Intro (kicks in at 0:09)
Gb|-------------------------------------------------2-3-4-----|
Db|-7h9--7-----------7h8-9--7---------------------------------|
Ab|------------5h6-7----------7-5-0--2-2-2-2-2-2-2-2-----0h12|
Eb|--------7/3------------------------------------------------|

Gb|-----------------|-----------------|-----------------|----------------|
Db|-----------------|-----------------|-----------------|-----------5-5-5|
Ab|-----------------|-----------------|-----------------|----------------|
Eb|-5-5-3-x-55-3-2-0|-5-5-3-x-55-3-2-0|-5-5-3-x-55-3-2-0|-5-5-3-x-55-----|

   Verse 1
Gb|-----------------|-----------------|-----------------|-----------------|
Db|-----------------|-----------------|-----------------|-----------------|
Ab|-----------------|-----------------|-----------------|-----------------|
Eb|-5-5-3-x-55-3-2-0|-5-5-3-x-55-3-2-0|-5-5-3-x-55-3-2-0|-5-5-3-x-55-3-2-0|

Gb|-----------------|-----------------|-----------------|-----------------|
Db|-----------------|-----------------|-----------------|-----------------|
Ab|-7-7-5-x-77-5-4-2|-7-7-5-x-77-5-4-2|-7-7-5-x-77-5-4-2|-7-7-5-x-77-5-4-2|
Eb|-----------------|-----------------|-----------------|-----------------|

   Chorus 1
Gb|-------------------------------------------------------------------------|
Db|-------------------------------------------------------------------------|
Ab|-0-3-3-3-3--5-5-5555-77-55---------77-55---------77-55---------7-5-------|
Eb|--------0-0----------------66-5-3-0------66-5-3-0------66-5-3-0---6-5-3-4|

   Verse 2
Gb|-----------------|-----------------|-----------------|-----------------|
Db|-----------------|-----------------|-----------------|-----------------|
Ab|-----------------|-----------------|-----------------|-----------------|
Eb|-5-5-3-x-55-3-2-0|-5-5-3-x-55-3-2-0|-5-5-3-x-55-3-2-0|-5-5-3-x-55-3-2-0|

Gb|-----------------|-----------------|-----------------|-----------------|
Db|-----------------|-----------------|-----------------|-----------------|
Ab|-7-7-5-x-77-5-4-2|-7-7-5-x-77-5-4-2|-7-7-5-x-77-5-4-2|-7-7-5-x-77-5-4-2|
Eb|-----------------|-----------------|-----------------|-----------------|

   Chorus 2
Gb|----------------------------------------------------------------------|
Db|-------------------------------------------------------------------67|
Ab|-0-3-3-3-3--5-5-5555--77-55--------77-55--------77-55-----------------|
Eb|--------0-0----------------66-5-3-0-----66-5-3-0-----66-5-3-0-7-7-7---|


   Solo 1
Gb|---------------------------------------------------------------|
Db|-----------------------------------------------------------55-5|
Ab|--4-5--7-----4-5--------4-5--7-----4-5-------4-5--7----4-5-----|
Eb|0----00-00--0---0-333-0----00-00--0---0-333-0---00-00-0---0--3-|

Gb|-------------------|
Db|-------------------|
Ab|-4-5--7----4-5-----|
Eb|0---00-00-0---0-333|

   Verse 3
Gb|-----------------|-----------------|-----------------|-----------------|
Db|-----------------|-----------------|-----------------|-----------------|
Ab|-----------------|-----------------|-----------------|-----------------|
Eb|-5-5-3-x-55-3-2-0|-5-5-3-x-55-3-2-0|-5-5-3-x-55-3-2-0|-5-5-3-x-55-3-2-0|

Gb|-----------------|-----------------|-----------------|-----------------|
Db|-----------------|-----------------|-----------------|-----------------|
Ab|-7-7-5-x-77-5-4-2|-7-7-5-x-77-5-4-2|-7-7-5-x-77-5-4-2|-7-7-5-x-77-5-4-2|
Eb|-----------------|-----------------|-----------------|-----------------|

   Chorus 3
Gb|---------------------------------------------------------------------|
Db|---------------------------------------------------------------------|
Ab|-0-3-3-3-3-5-5-5555-77-55--------77-55--------77-55--------7-5-------|
Eb|--------0-0--------------66-5-3-0-----66-5-3-0-----66-5-3-0---6-5-3-4|

   Bridge                                                         
Gb|-----------------------------------------------------------------------|
Db|-----5-----5-----------------------------------------------------------|
Ab|-5-----5-----h35--510--34-5-53-------------------------------10101010|
Eb|----3-----3-------------5-------51-33333-1-33333-1-33333-1-5555--------|

  
   Solo 2                                                             
Gb|----------------------------------------|------------------------------|
Db|----------------------------------------|------------------------------|
Ab|--4-5--7----4-5-------4-5--7----4-5-----|-4-2-4-2-4-2-4-2-0-2-0-2-0-2-0|
Eb|-0---00-00-0---0-333-0---00-00-0---0-333|------------------------------|

Gb|------------------------------|----------------------------------|
Db|------------------------------|----------------------------------|
Ab|-4-2-4-2-4-2-4-2-0-2-0-2-0-2-0|-4-2-4-2-4-2-4-2-0-2-0-2-0-2-0----|
Eb|------------------------------|-------------------------------2-0|

Gb|-----------------------------------------------------------|
Db|-----2----2------------------------9-7---------------------|
Ab|---------------0-1-2-22-2-2-22-2-2----9-7-7-5-5-7--77-5-5--|
Eb|-0000-0000-0000--------x-x-x--x-x------------7---------7-7-|

Gb|-----------------------------------------------|-----------------------|
Db|-----------------------------------------------|-----------------------|
Ab|---------------------------h299999-7----2-214|-----------------------|
Eb|-6-7-77x7-x77-77x7-0-222222----------9-5-------|-0-1-2-1-23-4-3-4-3-4-5|

Gb|----------------------|<-----------------|----------------|
Db|----------------------|<--play-this-bar--|----------------|
Ab|-7777-666-555-44-33-22|<------10x-then..>|----------------|
Eb|----------------------|<-----------------|-2-1-2-3-5-4-5-7|

   Final Chorus
Gb|--------------------------------------------|<---------------|
Db|--------------------------------------------|<-play-this-bar-|
Ab|-3-3-3-3--5-5-555-77-55--------77-55--------|<------3x-------|
Eb|------0-0--------------66-5-3-0-----66-5-3-0|<---------------|

   Outro
Gb|--------------------------------------|
Db|--------------------------------------|
Ab|-3-3-3-3--5-5-555-7-5-----------------|
Eb|------0-0------------6-5-3-0-5-3-0---0|





Please rate and comment
	
            
Submit corrections

comments powered by Disqus
↑ Back to top | Guns N Roses Bass for Welcome To The Jungle. Lyrics for acoustic guitar and electric guitar. Tablatures and chords are parodies/interpretations of the original songs. You may use it for private study, scholarship, research or language learning purposes only