» » »

Shacklers Revenge Tabs (ver.3)

Artists:  A B C D E F G H I J K L M N O P Q R S T U V W X Y Z # 

Shacklers Revenge Tabs (ver.3)

Guns N Roses
Rating:
0/5 (0 votes)

Hard to play? Try these video lessons and learn fast.
                Tune down half step then drop d

-------------------------------------------------------|
-------------------------------------------------------|
-------------------------------------------------------|
-------------------------------------------------------|
-------------------------------------------------------|
--5-7-(5)-6-6-5------5-7-(5)-6-6-5---------------------|

palm mute bracketed 5

-------------------------------------------------------|
-------------------------------------------------------|
-------------------------------------------------------|
-------------------------------------------------------|
-------------------------------------------------------|
--5-7-(5)-6-6-5------5-7-(5)-6-6-5---------------------|


Lead guitar from "it won't go away..."

-----------------------------------------------------------------|
-----------------------------------------------------------------|
----------------------------------------------------h------------|
------------------------h----3-5-----po-----------3(5)----3-5-3--|
--5---5-3----5-5-5----3(5)---------5(0)----------------5---------|
-------------------------------------------7---7-----------------|


---------------------------------------------------------------------|
---------------------------------------------------------------------|
---------------------h---------------po-------sl----7------po--------|
---------7--5--3---3(5)------------5(0)-----5/(7)------5--3(0)---po--|
--5-5----------------------4--4---------------------------------5(3)-|
---------------------------------------------------------------------|


Pre-Chorus


Gtr 1

--------------------------------------------------------------|
--------------------------------------------------------------|
-5-5-5-5-5-5-x-3-------5-5-5-5-5-5-x-3------------------------|
-5-5-5-5-5-5-x-3-------5-5-5-5-5-5-x-3------------------------|
-3-3-3-3-3-3-x-1-------3-3-3-3-3-3-x-1------------------------|
--------------------------------------------------------------|

--------------------------------------------------------------|
--------------------------------------------------------------|
-5-5-5-5-5-5-x-3-------5-5-5-5-5-5-x-3------------------------|
-5-5-5-5-5-5-x-3-------5-5-5-5-5-5-x-3------------------------|
-3-3-3-3-3-3-x-1-------3-3-3-3-3-3-x-1------------------------|
--------------------------------------------------------------|

Gtr 2


--------------------------------------------------------------------------|
--------------------------------------------------------------------------|
-5-5-5-5-5---po--h---3-----------5-5-5-5-5---po--h----3-------------------|
-5-5-5-5-5-5-(3)(5)---------------5-5-5-5-5-5-(3)(5)----------------------|
-3-3-3-3-3------------------------3-3-3-3-3-------------------------------|
--------------------------------------------------------------------------|

------------------------------------------bu--------------------------------|
-------------------------------------------10(12)----8----------------------|
-5-5-5-5-5--po--h---3----5-5-5-----------10(12)----8------------------------|
-5-5-5-5-5-5-(3)(5)-------5-5-5--3------------------------------------------|
-3-3-3-3-3----------------3-3-3---------------------------------------------|
----------------------------------------------------------------------------|


repeat, then end repeat with...


---------------------------------------------------------------------|
---------------------------------------------------------------------|
--5---3----pb-bd-po--------------------------------------------------|
-----------(4)3-(1)---3----------------------------------------------|
---------------------------------------------------------------------|
---------------------------------------------------------------------|

Chorus


--------------------------------------------------------------------------------|
--------------------------------------------------------------------------------|
--7-7-7-7-7-7-7-7----------------------------------------5-5-5-5----------------|
--7-7-7-7-7-7-7-7---8-8-8-8-8-8-8-8---3-3-3-3-3-3-3-3--5-5-5-5-----------h------|
--5-5-5-5-5-5-5-5---8-8-8-8-8-8-8-8---3-3-3-3-3-3-3-3--3-3-3-3-------8-7(8)-----|
---------------------8-8-8-8-8-8-8-8---3-3-3-3-3-3-3-3--------------------------|
            
Hard to play? Try these video lessons and learn fast. | Correct




comments powered by Disqus
↑ Back to top | Tablatures and chords are parodies/interpretations of the original songs. You may use it for private study, scholarship, research or language learning purposes only