>
 >
Shacklers Revenge

Shacklers Revenge Bass Tabs

Guns N Roses - Shacklers Revenge chords, tabs, tablatures, lyrics

Guitar lessons | Add/correct | Request | Top 50 tabs Artists:  A B C D E F G H I J K L M N O P Q R S T U V W X Y Z 0-9

Shacklers Revenge Bass Tabs – Guns N Roses

CD, Sheet music, Poster

Do you like Shacklers Revenge? Share with your friends now
Bass TabsTabsTabs v2Tabs v3
-------------------------------------------------------------------------------
                            Shackler's Revenge - Guns N' Roses
-------------------------------------------------------------------------------


Tuning: standard BEADG

Intro:

    W                   W                 
G|-------------------|-------------------|
D|-------------------|-------------------|
A|-------------------|-------------------|
E|-------------------|-------------------|
B|-------------------|-------------------|


    E  E  S E  S S  S  S  S  S  S E   
G|-----------------------------------|
D|-----------------------------------|
A|-----------------------------------|
E|----------4--3-1S-2S-1S-2S-1S-2----|x3
B|--2--2--2--------------------------|

    E  E  S E  S S  S  S  S  S  S  
G|--------------------------------|
D|--------------------------------|
A|--------------------------------|
E|----------4--3-1S-2S-1S-2S-1S-2-|
B|--2--2--2-----------------------|

Verse:

     E  S S S S S S S S S  S  S  S  S  S  
G|---------------------------------------|
D|---------------------------------------|
A|---------------------------------------|
E|----------------4-3-2-1S-2S-1S-2S-1S-2-|x2
B|------2-2-2-2-2------------------------|

    E  S S S S S S S S S  S  S  S  S  S    
G|---------------------------------------|
D|---------------------------------------|
A|---------------------------------------|
E|---------------4-3-2-1S-2S-1S-2S-1S-2--|x2
B|-----1-1-1-1-1-------------------------|

     E  S S S S S S S S S  S  S  S  S  S  
G|---------------------------------------|
D|---------------------------------------|
A|---------------------------------------|
E|----------------4-3-2-1S-2S-1S-2S-1S-2-|x2
B|------2-2-2-2-2------------------------|


    E  S S S S S S S S S  S  S  S  S  S    
G|---------------------------------------|
D|---------------------------------------|
A|---------------------------------------|
E|---------------4-3-2-1S-2S-1S-2S-1S-2--|x2
B|-----1-1-1-1-1-------------------------|

     E  S S S S S S S S S  S  S  S  S  S  
G|---------------------------------------|
D|---------------------------------------|
A|---------------------------------------|
E|----------------4-3-2-1S-2S-1S-2S-1S-2-|x2
B|------2-2-2-2-2------------------------|


    E  S S S S S S S S S  S  S  S  S  S    
G|---------------------------------------|
D|---------------------------------------|
A|---------------------------------------|
E|---------------4-3-2-1S-2S-1S-2S-1S-2--|x2
B|-----1-1-1-1-1-------------------------|

     E  S S S S S S S S S  S  S  S  S  S  
G|---------------------------------------|
D|---------------------------------------|
A|---------------------------------------|
E|----------------4-3-2-1S-2S-1S-2S-1S-2-|x2
B|------2-2-2-2-2------------------------|


    E  S S S S S S S S S  S  S  S  S  S    
G|---------------------------------------|
D|---------------------------------------|
A|---------------------------------------|
E|---------------4-3-2-1S-2S-1S-2S-1S-2--|x2
B|-----1-1-1-1-1-------------------------|

Pre-Chorus:

     E  E  E  E  E  E  S E.   
G|---------------------------|
D|---------------------------|
A|---------------------------|
E|---7--7--7--7--7--7--7-5---|x8
B|---------------------------|

Chorus:

    E  E  E  E  E  E  E  E     E  E  E  E  E  E  E  E   
G|--------------------------|--------------------------|
D|--------------------------|--------------------------|
A|--------------------------|--------------------------|
E|--------------------------|--5--5--5--5--5--5--5--5--|
B|--2--2--2--2--2--2--2--2--|--------------------------|


    E  E  E  E  E  E  E  E     E  E  E  E  E  E  E  E   
G|--------------------------|--------------------------|
D|--------------------------|--------------------------|
A|--------------------------|--------------------------|
E|-----------------------5--|--7--7--7--7--7--7--7--7--|
B|--5--5--5--5--5--5--5-----|--------------------------|


    E  E  E  E  E  E  E  E     E  E  E  E  E  E  E  E   
G|--------------------------|--------------------------|
D|--------------------------|--------------------------|
A|--------------------------|--------------------------|
E|--------------------------|--5--5--5--5--5--5--5--5--|
B|--2--2--2--2--2--2--2--2--|--------------------------|


    E  E  E  E  E  E  E  E     E  E  E  E  E  E  E  E   
G|--------------------------|--------------------------|
D|--------------------------|--------------------------|
A|--------------------------|--------------------------|
E|--------------------------|--------------------------|
B|--5--5--5--5--5--5--5--4--|--0--0--0--0--0--0--0--0--|

Bridge:

    W                 
G|-------------------|
D|-------------------|
A|-------------------|
E|-------------------|
B|-------------------|

    E  E  E  S E  S S  S  S  S  S  S    
G|-----------------------------------|
D|-----------------------------------|
A|-----------------------------------|
E|-------------4--3-1S-2S-1S-2S-1S-2-|x2
B|-----2--2--2-----------------------|

Verse:

     E  S S S S S S S S S  S  S  S  S  S  
G|---------------------------------------|
D|---------------------------------------|
A|---------------------------------------|
E|----------------4-3-2-1S-2S-1S-2S-1S-2-|x2
B|------2-2-2-2-2------------------------|

    E  S S S S S S S S S  S  S  S  S  S    
G|---------------------------------------|
D|---------------------------------------|
A|---------------------------------------|
E|---------------4-3-2-1S-2S-1S-2S-1S-2--|x2
B|-----1-1-1-1-1-------------------------|

Pre-Chorus:

    E  E  E  E  E  E  S E.   
G|--------------------------|
D|--------------------------|
A|--------------------------|
E|--7--7--7--7--7--7--7-5---|x8
B|--------------------------|

Chorus:

    E  E  E  E  E  E  E  E     E  E  E  E  E  E  E  E   
G|--------------------------|--------------------------|
D|--------------------------|--------------------------|
A|--------------------------|--------------------------|
E|--------------------------|--5--5--5--5--5--5--5--5--|
B|--2--2--2--2--2--2--2--2--|--------------------------|


    E  E  E  E  E  E  E  E     E  E  E  E  E  E  E  E   
G|--------------------------|--------------------------|
D|--------------------------|--------------------------|
A|--------------------------|--------------------------|
E|-----------------------5--|--7--7--7--7--7--7--7--7--|
B|--5--5--5--5--5--5--5-----|--------------------------|


    E  E  E  E  E  E  E  E     E  E  E  E  E  E  E  E   
G|--------------------------|--------------------------|
D|--------------------------|--------------------------|
A|--------------------------|--------------------------|
E|--------------------------|--5--5--5--5--5--5--5--5--|
B|--2--2--2--2--2--2--2--2--|--------------------------|


    E  E  E  E  E  E  E  E     E  E  E  E  E  E  E  E   
G|--------------------------|--------------------------|
D|--------------------------|--------------------------|
A|--------------------------|--------------------------|
E|--------------------------|--------------------------|
B|--5--5--5--5--5--5--5--4--|--0--0--0--0--0--0--0--0--|

    E  E  E  E  E  E  E  E     E  E  E  E  E  E  E  E   
G|--------------------------|--------------------------|
D|--------------------------|--------------------------|
A|--------------------------|--------------------------|
E|--------------------------|--5--5--5--5--5--5--5--5--|
B|--2--2--2--2--2--2--2--2--|--------------------------|


    E  E  E  E  E  E  E  E     E  E  E  E  E  E  E  E   
G|--------------------------|--------------------------|
D|--------------------------|--------------------------|
A|--------------------------|--------------------------|
E|-----------------------5--|--7--7--7--7--7--7--7--7--|
B|--5--5--5--5--5--5--5-----|--------------------------|


    E  E  E  E  E  E  E  E     E  E  E  E  E  E  E  E   
G|--------------------------|--------------------------|
D|--------------------------|--------------------------|
A|--------------------------|--------------------------|
E|--------------------------|--5--5--5--5--5--5--5--5--|
B|--2--2--2--2--2--2--2--2--|--------------------------|


    E  E  E  E  E  E  E  E     E  E  E  E  E  E  E  E   
G|--------------------------|--------------------------|
D|--------------------------|--------------------------|
A|--------------------------|--------------------------|
E|--------------------------|--------------------------|
B|--5--5--5--5--5--5--5--4--|--0--0--0--0--0--0--0--0--|

Bridge:

    W                   W                   W                 
G|-------------------|-------------------|-------------------|
D|-------------------|-------------------|-------------------|
A|-------------------|-------------------|-------------------|
E|-------------------|-------------------|-------------------|
B|-------------------|-------------------|-------------------|

Solo:

    E  E  Q    E  E  Q       E  E  Q    S S S S S E.   
G|------------------------|---------------------------|
D|------------------------|---------------------------|
A|------------------------|---------------------------|
E|------------------------|---------------------------|x4
B|--0--0-------0--0-------|--0--0-------5-5-5-5-4-2---|


    E  E  Q    E  E  Q       E  E  Q    E  E  S E.   
G|------------------------|---------------------------|
D|------------------------|---------------------------|
A|------------------------|---------------------------|
E|------------------------|----------------7----------|x4
B|--2--2-------2--2-------|--2--2-------5-----6-5-----|

Pre-Chorus:

     E  E  E  E  E  E  S E.   
G|---------------------------|
D|---------------------------|
A|---------------------------|
E|---7--7--7--7--7--7--7-5---|x7
B|---------------------------|

    W                 
G|-------------------|
D|-------------------|
A|-------------------|
E|-------------------|
B|-------------------|

Chorus:

    E  E  E  E  E  E  E  E     E  E  E  E  E  E  E  E   
G|--------------------------|--------------------------|
D|--------------------------|--------------------------|
A|--------------------------|--------------------------|
E|--------------------------|--5--5--5--5--5--5--5--5--|
B|--2--2--2--2--2--2--2--2--|--------------------------|


    E  E  E  E  E  E  E  E     E  E  E  E  E  E  E  E   
G|--------------------------|--------------------------|
D|--------------------------|--------------------------|
A|--------------------------|--------------------------|
E|-----------------------5--|--7--7--7--7--7--7--7--7--|
B|--5--5--5--5--5--5--5-----|--------------------------|


    E  E  E  E  E  E  E  E     E  E  E  E  E  E  E  E   
G|--------------------------|--------------------------|
D|--------------------------|--------------------------|
A|--------------------------|--------------------------|
E|--------------------------|--5--5--5--5--5--5--5--5--|
B|--2--2--2--2--2--2--2--2--|--------------------------|


    E  E  E  E  E  E  E  E     E  E  E  E  E  E  E  E   
G|--------------------------|--------------------------|
D|--------------------------|--------------------------|
A|--------------------------|--------------------------|
E|--------------------------|--------------------------|
B|--5--5--5--5--5--5--5--4--|--0--0--0--0--0--0--0--0--|

    E  E  E  E  E  E  E  E     E  E  E  E  E  E  E  E   
G|--------------------------|--------------------------|
D|--------------------------|--------------------------|
A|--------------------------|--------------------------|
E|--------------------------|--5--5--5--5--5--5--5--5--|
B|--2--2--2--2--2--2--2--2--|--------------------------|


    E  E  E  E  E  E  E  E     E  E  E  E  E  E  E  E   
G|--------------------------|--------------------------|
D|--------------------------|--------------------------|
A|--------------------------|--------------------------|
E|-----------------------5--|--7--7--7--7--7--7--7--7--|
B|--5--5--5--5--5--5--5-----|--------------------------|


    E  E  E  E  E  E  E  E     E  E  E  E  E  E  E  E   
G|--------------------------|--------------------------|
D|--------------------------|--------------------------|
A|--------------------------|--------------------------|
E|--------------------------|--5--5--5--5--5--5--5--5--|
B|--2--2--2--2--2--2--2--2--|--------------------------|


    E  E  E  E  E  E  E  E     E  E  E  E  E  E  E  E   
G|--------------------------|--------------------------|
D|--------------------------|--------------------------|
A|--------------------------|--------------------------|
E|--------------------------|--------------------------|
B|--5--5--5--5--5--5--5--4--|--0--0--0--0--0--0--0--0--|

Outro:

    E  E  E  S E  S S  S  S  S  S  S   
G|-----------------------------------||
D|-----------------------------------||
A|-----------------------------------||
E|-------------4--3-1S-2S-1S-2S-1S-2-||
B|-----2--2--2-----------------------||

===============================================================================
Notes: 

I did the bassline in Guitar Pro 5, so if You want the .gp5 file, just mail me!

Where You see duration for a note, but there's no note in the tab that means a
rest.

If You have problems with this tab, write Me a mail what's wrong with it
instead of giving it a bad rating! It'd be better for everyone! Thx!

Duration Legend	       
---------------	       
W - whole	       
H - half	       
Q - quarter	       
E - 8th		       
S - 16th	       
T - 32nd	       
X - 64th	       
. - note dotted	       
|-n-|  - n-tuplets     
		       
Tablature Legend		       
----------------		       
L - tied note		       
x - dead note		       
g - grace note		       
(n) - ghost note		       
> - accentuded note		       
NH - natural harmonic		       
AH - artificial harmonic		       
TH - tapped harmonic		       
SH - semi harmonic		       
PH - pitch harmonic		       
h - hammer on		       
p - pull off		       
b - bend		       
br - bendRelease		       
pb - preBend		       
pbr - preBendRelease		       
brb - bendReleaseBend		       
\n/ - tremolo bar dip		       
\n - tremolo bar dive		       
-/n - tremolo bar Release up		       
/n\ - tremolo bar inverted dip		       
/n - tremolo bar return		       
-\n - tremolo bar Release down		       
S - shift slide		       
s - legato slide		       
/ -  slide into from below or out of upwards
\ -  slide into from above or out of downwards
~ - vibrato
W - wide vibrato
tr - trill
TP - tremolo picking
T - tapping
S - slap
P - pop
< - fade in
^ - brush up
v - brush down
===============================================================================





Comments


Popular Guns N Roses tabs & chords
Dont Cry Bass Tabs
One In A Million Chords
Black Thunder Tabs
I Don't Care About You Tabs
Knocking On Heavens Door (Intro) Tabs
Once In A Million Tabs
So Fine 2 Tabs
Sweet Child Of Mine 2 Tabs
Used To Love Her 1 Tabs
Cornshucker Ukulele


Song lyrics



↑ Back to top | Tablatures and chords are parodies/interpretations of the original songs. You may use it for private study, scholarship, research or language learning purposes only
© 2014 AZChords.com Contact us | Privacy policy | DMCA | Add/correct tabs | Request tabs | Top 50 tabs