» » »

Shacklers Revenge Tabs (ver.2)

Artists:  A B C D E F G H I J K L M N O P Q R S T U V W X Y Z # 

Shacklers Revenge Tabs (ver.2)

Guns N Roses
Rating:
0/5 (0 votes)

Hard to play? Try these video lessons and learn fast.
                Shackler's Revenge

Tuning: Bb,F,Bb,Eb,G,C  // A#,F,A#,Eb,G,C
Comment: Ahah, I'm just a huge Buckethead fan, and since no one else's tab was accurate,
I just had to try my own hand at it. The tuning is really weird, though, so that took a 
time to figure out. It's likely incorrect here and there,
but I'm trying my best.


INTRO:
(I have no idea how this is playable by one guitarist.)
          *              *              *               *
----------20-------------20-------------20--------------20-|
----------0--------------0--------------0---------------0--|
----------17-------------17-------------17--------------17-|
-----------------------------------------------------------|
-----------------------------------------------------------|
-1--1-----------1--1-----------1--1------------1--1--------|
 P  P           P  P           P  P            P  P

(*Note: I really can't decide if you should use a whammy effect for the weird "elephant 
chord during the intro.
If so, it'd be best to set it to +1 octave. It's up to you.)


INTRO 2:

wip


VERSE:
("I've got a funny feeling[...]")

-----------------------------------------------------|
-----------------------------------------------------|
-----------------------------------------------------|
-----------------------------------------------------|
-----------3-5-3-3-1-2-1-2-----------3-5-3-3-1-2-1-2-|
-3-4-3-4-3-----------------3-4-3-4-3-----------------|
 p p p p p p p p p p p p p p p p p p p p p p p p p p


-----------------------------------------------------|
-----------------------------------------------------|
-----------------------------------------------------|
-----------------------------------------------------|
-----------2-4-2-2-0-1-0-1-----------2-4-2-2-0-1-0-1-|
-2-3-2-3-2-----------------2-3-2-3-2-----------------|
 p p p p p p p p p p p p p p p p p p p p p p p p p p


-----------------------------------------------------|
-----------------------------------------------------|
-----------------------------------------------------|
-----------------------------------------------------|
-----------3-5-3-3-1-2-1-2-----------3-5-3-3-1-2-1-2-|
-3-4-3-4-3-----------------3-4-3-4-3-----------------|
 p p p p p p p p p p p p p p p p p p p p p p p p p p


--------------------------------------------------20-|
--------------------------------------------------0--|
--------------------------------------------------17-|
-----------------------------------------------------|
-----------2-4-2-2-0-1-0-1-----------2-4-2-2---------|
-2-3-2-3-2-----------------2-3-2-3-2-----------------|
 p p p p p p p p p p p p p p p p p p p p p p p p p p


VERSE 2:
"I've got a wicked demon [...]"

wip


PRE-CHORUS:
"Don't ever try to tell me [...]"

----------------------------------------------------------|
----------------------------------------------------------|
----------------------------------------------------------|
---------13----------13--11-----------13----------13--11--|
-13--13--13--13--13--13--11---13--13--13--13--13--13--11--|
-13--13------13--13----13-----13--13------13--13----13----|
 p   p       p   p     p      p   p       p   p     p

                              [The below is labeled "Fill 1" ~!]
--------------------------------------------x-x-x----------------|
--------------------------------------------x-x-x--13-(14)-13-11-|
--------------------------------------------x-x-x--13-(14)-13-11-|
---------13----------13--11-----------13-11----------------------|
-13--13--13--13--13--13--11---13--13--13-11----------------------|
-13--13------13--13----13-----13--13-----------------------------|
 p   p       p   p     p      p   p                  (bend)


REPEAT ^
(Instead of "Fill 1", There'd be a different fill, which is wip.)


CHORUS:
"I don't believe there's a reason [...]"

-----------------------------------------------------------------------------|
-----------------------------------------------------------------------------|
--10-----6-------------------------------10-----6----------------------------|
--10-----6-----(6)6-----1-----1/6-5------10-----6-----(6)6-----1-----1/6-5---|
---8-----4-----(6)6-----1-----------------8-----4-----(6)6-----1-------------|
---------------(6)6-----1-----------------------------(6)6-----1-------------|


CHORUS (backing):
"I don't believe there's a reason [...]"
W/Whammy Pedal +1 Octave*

---------------------------------------------------------|
-------------9-------------9-------------9-------------9-|
--10--8--10-----10--8--10-----10--8--10-----10--8--10----|
---------------------------------------------------------|
---------------------------------------------------------|
---------------------------------------------------------| (x2)

*Let the normal sound of each of the notes play for half it's duration
before flicking the pedal up an octave. Makes a 'wave'/pulse in pitch, sort of.

This is the backing part to the chorus, above.

That's all for now, but I'm constantly working on it. Hope you like it/can improve upon it!
            
Hard to play? Try these video lessons and learn fast. | Correct




comments powered by Disqus
↑ Back to top | Tablatures and chords are parodies/interpretations of the original songs. You may use it for private study, scholarship, research or language learning purposes only