>
 >
Shacklers Revenge

Shacklers Revenge Guitar Tabs

Guns N Roses - Shacklers Revenge chords, tabs, tablatures, lyrics

Guitar lessons | Add/correct | Request | Top 50 tabs Artists:  A B C D E F G H I J K L M N O P Q R S T U V W X Y Z 0-9

Shacklers Revenge Guitar Tabs – Guns N Roses

CD, Sheet music, Poster

Do you like Shacklers Revenge? Share with your friends now
Bass TabsTabsTabs v2Tabs v3
Guns N' Roses
Chinese Democracy

Guitars: Buckethead, Robin Finck, Ron 'Bumblefoot' Thal
Tuning: Drop C#

Intro

|----------------------------------------------------------------------|
|------------10----------------10----------------10---------------10---|
|------------12b---------------12b---------------12b--------------12b--|
|----------------------------------------------------------------------|
|--0----0------------0----0------------0----0-----------0----0---------|
|--0----0------------0----0------------0----0-----------0----0---------|


Pre-Verse
|----------------------------------|
|----------------------------------|
|----------------------------------|
|----------------------------------|
|---------------------------0------|
|---0h3p0--00--5677-55-33---0------|

Verse

Lead Guitar
|---------------------------------------------------------|
|-----------10--------------------------------------------|
|-----------12b-------------------------------------------|
|---------------------------------------------------------|
|--0----0-------------------------------------------------|
|--0----0-------------------------------------------------|

Verse part II
Rhythm Guitar
|----------------------------------|
|----------------------------------|
|----------------------------------|
|----------------------------------|
|---------------------------0------|
|---0h3p0--00--5677-55-33---0------|X2

Lead Guitar
|-------------------------------------------------------------------|
|-------------------------------------------------------------------|
|-------------------------------------------------------------5~~---|
|----------------(thrill)---------/5~~------------------3h5---------|
|--3---3h5~~~~----3tr5--------3---x--------3---3h5~~~~--3-----------|
|-------------------------------------------------------------------|


|----------------------------------------------------------------------|
|----------------------------------------------------------------------|
|-------------------------------------------------------5~~--3---------|
|----------------(thrill)---------/5~~-------------------------5br-3~~-|
|--3---3h5~~~~----3tr5--------3---x--------3---3h5~~~~-----------------|
|----------------------------------------------------------------------|


Pre-Chorus

Rhythm Guitar
|-------------------------------------------------------|
|-------------------------------------------------------|
|-------------------------------------------------------|
|---5--5--5--5-5--5--5----------------------------------|
|---3--3--3--3-3--3--3--3--1~~--------------------------|
|-------------------------------------------------------|

Lead Guitar

|-----10-------------10------------|
|-13b-----13-10-13b------13-10-----|
|----------------------------------|
|----------------------------------|
|----------------------------------|
|----------------------------------|

|--------10--------------------------------------------|
|------10---13p10--13b-13b--13p10----------------------|
|--12b-----------------------------12~~~~--------------|
|------------------------------------------------------|
|------------------------------------------------------|
|------------------------------------------------------| X2


Chorus

 Rhythm 1
|-------------------------------------------------------|
|-------------------------------------------------------|
|-----------------3-------------------------------------|
|--7--------------3------------3------------5-----------|
|--5--------------1------------3------------3----8~--7~-|
|--0----------------------------------------------------|
|Rhythm 2
|-------------------------------------------------------|
|-------------------------------------------------------|
|-------------------------------------------5-----------|
|--7---7-7-7------3---3-3-3----3------------5----10--9--|
|--5---5-5-5------1---1-1-1----3---3-3-3----3----8---7--|
|--0---------------------------3---3-3-3----------------|
|Lead
|-------------------------------------------------------|
|--3---------------------------1------------1----6---5--|
|--5b-------------3~~----------3b-----------3b---8b--7b-|
|-------------------------------------------------------|
|-------------------------------------------------------|
|-------------------------------------------------------|


Rhythm Guitar
|------------------------------------------------------|
|-----------13~~~~-------------------------------------|
|-----------12~~~~-------------------------------------|
|-----------10-----------------------------------------|
|--0---0----10-----------------------------------------|
|--0---0----10-----------------------------------------|
|Lead Guitar
|------------------------------------------------------|
|--13~--13~--13~-----13~~~~~~~~~~~---------------------|
|------------------------------------------------------|
|------------------------------------------------------|
|------------------------------------------------------|
|------------------------------------------------------|



Solo

|--------13-12-10----10----------------------------------------------------|
|---13b-----------13----13-12-10-13-12-10----10----------------------------|
|-----------------------------------------13----13-12-10-12-13-12p10-12----|
|--------------------------------------------------------------------------|
|--------------------------------------------------------------------------|
|--------------------------------------------------------------------------|

|-------------------------------------------------------------------------------------------------|
|--------------------------131210--131210--131210---13b-------------------------------------------|
|-------------------12~~~--------13------13------13-------------7891078910------------891011891011|
|13--13-12-10--12-10-----------------------------------7891078910----------891011891011-----------|
|-------------------------------------------------------------------------------------------------|
|-------------------------------------------------------------------------------------------------|

|-----------------------------------------------------------------12-10-----131210131210------|
|-----------------------------------------------10111213--13b-13b-------13b--------------13~~-|
|----------------91011129101112-1011121310111213----------------------------------------------|
|--91011129101112-----------------------------------------------------------------------------|
|---------------------------------------------------------------------------------------------|
|---------------------------------------------------------------------------------------------|

|--3h5p3---5p3---3---5h7p5---7p5---3/5--8h10p8h10----8-10--15-13-10-13-12-10-13-12-10------|
|--------5-----5-----------8-----7----------------10----------------------------------13b--|
|------------------------------------------------------------------------------------------|
|------------------------------------------------------------------------------------------|
|------------------------------------------------------------------------------------------|
|------------------------------------------------------------------------------------------|


|--13h15p13-----12/13----------------------------22-20-19---------------------------|
|-----------15--------15p13----13--13p10------------------22-19------15p13p10----10-|
|---------------------------14-----------12~~~~-----------------21------------12----|
|-----------------------------------------------------------------------------------|
|-----------------------------------------------------------------------------------|
|-----------------------------------------------------------------------------------|

|------------------------------------------------15-13-10-----------------------|
|------------------------------13-12-10-15-13-10-----------13b~~~~~~~~~~--------|
|--12p10----------10--13-12-10--------------------------------------------------|
|--------12~---12---------------------------------------------------------------|
|-------------------------------------------------------------------------------|
|-------------------------------------------------------------------------------|





Comments


Popular Guns N Roses tabs & chords
Catcher In The Rye Chords
November Rain Chords
November Rain Drum Tabs
Blues 3 Tabs
Once In A Million Tabs
Paradise City 1 Tabs
Patience Long 1 Tabs
Rocket Queen 2 Tabs
Sweet Child O Mine With Lyrics Tabs
Yesterday Tabs


Song lyrics



↑ Back to top | Tablatures and chords are parodies/interpretations of the original songs. You may use it for private study, scholarship, research or language learning purposes only
© 2014 AZChords.com Contact us | Privacy policy | DMCA | Add/correct tabs | Request tabs | Top 50 tabs