» » »

Why Do You Want Him? Tabs (ver.2)

Artists:  A B C D E F G H I J K L M N O P Q R S T U V W X Y Z # 

Why Do You Want Him? Tabs (ver.2)

Green Day
Rating:
0/5 (0 votes)

Hard to play? Try these video lessons and learn fast.
                green day
why do you want him?
INTRO
  D B G A (2x)
  E A F# G (2x)

VERSE 1
  E         A             F#      G
  I saw you standing alone with a sad look on your face
  You call him on the phone it looks like he left without
	a trace.
  Tears falling out of your eyes, been living in a disguise
  Feeling bad for so long, you wonder if it's right or wrong.

CHORUS
  D          B    G   A
  Why do you want him?

VERSE 2
  Now many days have gone by, you just and cry
  You're feeling bad for yourself, the memory will always dwell
  You're so obsessed with his love, that's why push came to
	shove
  Feeling bad for so long, you wonder if it's right or wrong

CHORUS

BRIDGE (the lyrics aren't in the book) (/ means slide)
     G A B G/A
		It's all my own.
                I'll throw it all away.
		Because she's alone
		I've got something to say!

SOLO
  |-------------------------5------|
  |--3~~~~------7-5-7-5-7-8---8-7--|
  |--5b7~~--5-7--------------------|
  |--------------------------------|
  |--------------------------------|
  |--------------------------------|

  |--5-5--------------------------------------------|
  |------8-8-7-7-8/10/8-7---------------------------|
  |-----------------------7--6/7-7--6/7-7--6--------|
  |------------------------------------------9-7-5--|
  |-------------------------------------------------|
  |-------------------------------------------------|

  |--/7-9-9--/7-9-9--/7-9-9-9-9-9-9--|
  |--/7-9-9--/7-9-9--/7-9-9-9-9-9-9--|
  |----------------------------------|
  |----------------------------------|
  |----------------------------------|
  |----------------------------------|

  |---------------------------------------|
  |--9------9------9----------------------|
  |--11b13--11b13--11b13--9-11-9----9-----|
  |------------------------------11---11--|
  |---------------------------------------|
  |---------------------------------------|

  |---------------------------9-9-9---|
  |---------------------------9-9-9---|
  |--10-10-12p10----10-12--11b--------|
  |--------------12-------------------|
  |-----------------------------------|
  |-----------------------------------|

  |------9-9-9--------12p11p9----9b--|
  |------9-9-9--(5x)----------12-----|
  |--11b-----------------------------|
  |----------------------------------|
  |----------------------------------|
  |----------------------------------|

CHORUS

End on D
            
Hard to play? Try these video lessons and learn fast. | Correct




comments powered by Disqus
↑ Back to top | Tablatures and chords are parodies/interpretations of the original songs. You may use it for private study, scholarship, research or language learning purposes only