» » »

Who Wrote Holden Caulfield? Bass tabs (ver.1)

Artists:  A B C D E F G H I J K L M N O P Q R S T U V W X Y Z # 

Who Wrote Holden Caulfield? Bass tabs (ver.1)

Green Day
Rating:
0/5 (0 votes)

Hard to play? Try these video lessons and learn fast.
                (2)
Intro
Gb----------------------------------------------
Db----------------------------------------------
Ab--5h7--7-7-7-7-5-5-5-5-5-4-4-4-4-4-2-2-2-2-2--
Eb----------------------------------------------

Pre-Chorus
Gb---------------------------
Db---------------------------
Ab--------------0-0-0-0-0-0--
Eb--2-2-2-2-2-2--------------

Chorus
Gb--------------------------------------------
Db--------------------------------------------
Ab--7-7-7-7---------5-5-5-5-0-0-0-0------5h7--
Eb----------7-7-7-7------------------5h7------

Verse
Gb-------------------------------------------
Db-------------------------------------------
Ab--7-7-7-7-7-5-5-5-5-5-4-4-4-4-4-2-2-2-2-2--
Eb-------------------------------------------

Solo 		 	     X3
Gb----9-7---------6-4-------|----9-7---------6-4-4-4--
Db--------7-----------4-----|--------7----------------
Ab--7--------5--4--------2--|--7--------5--4----------
Eb--------------------------|-------------------------
            
Hard to play? Try these video lessons and learn fast. | Correct




comments powered by Disqus
↑ Back to top | Tablatures and chords are parodies/interpretations of the original songs. You may use it for private study, scholarship, research or language learning purposes only