» » »

Who Wrote Holden Caulfield? Tabs (ver.3)

Artists:  A B C D E F G H I J K L M N O P Q R S T U V W X Y Z # 

Who Wrote Holden Caulfield? Tabs (ver.3)

Green Day
Rating:
0/5 (0 votes)

Hard to play? Try these video lessons and learn fast.
                Verse Riff 
  E5  E5  E5  E5  D5  D5  D5  D5  Db5 Db5 Db5 Db5 B5  B5  B5  B5 
eb:--------------------------------------------------------------- 
Bb:--------------------------------------------------------------- 
Gb:--9---9---9---9---7---7---7---7---6---6---6---6---4---4---4---4 
Db:999-999-999-999-777-777-777-777-666-666-666-666-444-444-444-444 
Ab:777-777-777-777-555-555-555-555-444-444-444-444-222-222-222-222 
Eb:--------------------------------------------------------------- 
PM---  --  --  --  --  --  --  --  --  --  --  --  --  --  --  -- 
repeat verse riff 

pre-chorus riff 
  F#5         A5 
eb:-------------------- 
Bb:-------------------- 
Gb:------------2-2-2222 
Db:4-4-444-4-4-2-2-2222 
Ab:4-4-444-4-4-0-0-0000 
Eb:2-2-222-2-2--------- 

Chorus 
  E      B5       Db5     A5 
eb:----------------------------- 
Bb:----------------------------- 
Gb:-------4-4444-4-6-6-666-22222 
Db:22-222-4-4444-4-6-6-666-22222 
Ab:22-222-2-2222-2-4-4-444-00000 
Eb:00-000----------------------- 

Bridge/ interlude, whatever you wanna call it... 
eb:--------------------------- 
Bb:--------------------------- 
Gb:999999-777777-666666-444444 
Db:999999-777777-666666-444444 
Ab:777777-555555-444444-222222 
Eb:--------------------------- 

eb:---------------------------------------- 
Bb:---------------------------------------- 
Gb:9-9-999-1111111111-13-13-13-13-13-111111 
Db:9-9-999--x x x x x- x  x  x  x  x-x x x-           
Ab:7-7-777--9 9 9 9 9-11-11-11-11-11-9-9-9- 
Eb:---------------------------------------- 

eb:---------------------------------------- 
Bb:---------------------------------------- 
Gb:-----7/9----7---------6----6----4----4-- 
Db:2-22-7/9-77-7-777-7-7-6666-6-44-4444-444 
Ab:2-22-5/7-55-5-555-5-5-4444-4-22-2222-222 
Eb:0-00------------------------------------ 
    PM     --   --- - -  ---   --  ---  --
            
Hard to play? Try these video lessons and learn fast. | Correct




comments powered by Disqus
↑ Back to top | Tablatures and chords are parodies/interpretations of the original songs. You may use it for private study, scholarship, research or language learning purposes only