» » »

When I Come Around Tabs (ver.3)

Artists:  A B C D E F G H I J K L M N O P Q R S T U V W X Y Z # 

When I Come Around Tabs (ver.3)

Green Day
Rating:
0/5 (0 votes)

Hard to play? Try these video lessons and learn fast.
                This is the right verson, i havent seen one right yet besides this! 
Mike


Intro/Verse:
e -----------------------------------------------------------------------
B -----------------------------------------------------------------------
G -----------------------------------------------------------------------
D ----------7-7-7--9-9--5-5-5----------------------------------------------
A ---5-5-5--5-5-5--7-7--3-3-3--------------------------------------
E ---3-3-3--------------------------------------------------------
     
Chorus:
e -----------------------------------------------------------------------
B -----------------------------------------------------------------------
G -----------------------------------------------------------------------
D --------------------5-5-5-5-5-5-5-5-------------------7-7-7-7----------
A ---7-7-7-7-7-7-7-7--3-3-3-3-3-3-3-3--7-7-7-7-7-7-7-7--5-5-5-5----------
E ---5-5-5-5-5-5-5-5-------------------5-5-5-5-5-5-5-5-------------------

Solo:
e   |--3------5-------3---5-5-3---3-3-------5----------------------------
B   |---3---3---3---3---3-------3-----3---3---3---3---3--3/6--6---6/8/1--
G   |-----0-------0---------------------0-------0------------------------ 
D   |--------------------------------------------------------------------
A   |--------------------------------------------------------------------
E   |--------------------------------------------------------------------

Outro:
e -----------------------------------------------------------------------
B -----------------------------------------------------------------------
G -----------------------------------------------------------------------
D ----------7-7-7--9-9-9--5-----------------------------------------------
A ---5-5-5--5-5-5--7-7-7--3---------------------------------------------
E ---3-3-3--------------------------------------------------------------
            
Hard to play? Try these video lessons and learn fast. | Correct




comments powered by Disqus
↑ Back to top | Tablatures and chords are parodies/interpretations of the original songs. You may use it for private study, scholarship, research or language learning purposes only