» » »

Green Day, Warning Tabs (ver.3)

Artists:  A B C D E F G H I J K L M N O P Q R S T U V W X Y Z # 

Warning Tabs (ver.3)

Green Day Tabs
 Rating:
4/5 (4 votes)
Warning lessons Tabs too difficult? Try these video lessons and learn fast
                


Use this chords for the intro/verse

  A     D     G     D     A 
|-0-| |-2-| |-3-| |-2-| |-0-|
|-2-| |-3-| |-0-| |-3-| |-2-|
|-2-| |-2-| |-0-| |-2-| |-2-|
|-2-| |-0-| |-0-| |-0-| |-2-|
|-0-| |---| |-2-| |---| |---|
|---| |---| |-3-| |---| |---|


Bridge:

(This the bass part transcribed for the guitar)
|---------------------------------------------------------|
|---------------------------------------------------------|
|---------------------------------------------------------|
|---------------------------------------------------------|
|-0-4-0-----0-0-4-0------0-4-0-----0-0-4-0----------------|
|-------3-0---------3-0--------3-0---------3-0------------|
And you have to play the A chords

And the bass goes

|---------------------------|
|--------------55-----------|
|-------55-7-9----9-7-55----|
|-55-7-9-----------------9-5|

Live: Billie Joe plays powerchords
            
Submit corrections

comments powered by Disqus
↑ Back to top | Green Day Tabs for Warning. Lyrics for acoustic guitar and electric guitar. Tablatures and chords are parodies/interpretations of the original songs. You may use it for private study, scholarship, research or language learning purposes only