» » »

Waiting Chords (ver.2)

Artists:  A B C D E F G H I J K L M N O P Q R S T U V W X Y Z # 

Waiting Chords (ver.2)

Green Day
Rating:
0/5 (0 votes)

Tabs too difficult? Try these video lessons and learn fast.
                G------------------4--4-4--4-4-4-------------------
D-4--4-4--4-4-4----4--4-4--4-4-4----6--6-6--6-6-6--
A-4--4-4--4-4-4----6--6-6--6-6-6----6--6-6--6-6-6--
E-6--6-6--6-6-6---------------------8--8-8--8-8-8--

G-4--4-4--4-4-4------------------------------------
D-4--4-4--4-4-4----4--4-4--4-4-4-------------------
A-6--6-6--6-6-6----4--4-4--4-4-4-------------------
E------------------6--6-6--6-6-6-------------------

thats it hope you like it
            
Tabs too difficult? Try these video lessons and learn fast.


comments powered by Disqus
↑ Back to top | Tablatures and chords are parodies/interpretations of the original songs. You may use it for private study, scholarship, research or language learning purposes only