» » »

Take Back Tabs (ver.1)

Artists:  A B C D E F G H I J K L M N O P Q R S T U V W X Y Z # 

Take Back Tabs (ver.1)

Green Day
Rating:
0/5 (0 votes)

Hard to play? Try these video lessons and learn fast.
                This is my first tab but it is very good. It’s a cool song and very easy to play.

           Tuning: E
                       : A
                       : D
                       : G
                       : B
                       : e

  intro      
      e--------------------------------------------------------------------------------------
      b--------------------------------------------------------------------------------------
      g--------------------------------------------------------------------------------------     
      d--------7-7-7-77-7-7-7--5-5-5--8-8-8-------------------------------------------
      a--------7-7-7-77-7-7-7--5-5-5--8-8-8-------------------------------------------
      e--------5-5-5-55-5-5-5--3-3-3--6-6-6-------------------------------------------

chorus
 
      e--------------------------------------------------------------------------------------
      b--------------------------------------------------------------------------------------
      g--------4-4-4-44-4-4-4--2-2-2--5-5-5-------------------------------------------
      d--------4-4-4-44-4-4-4--2-2-2--5-5-5-------------------------------------------
      a--------2-2-2-22-2-2-2--0-0-0--3-3-3-------------------------------------------
      e--------------------------------------------------------------------------------------

 end

     e---------------------------------------------------------------------------------------
     b---------------------------------------------------------------------------------------
     g---------------------------------------------------------------------------------------
     d-----7-7---------------------------------------------------------------------------
     a-----7-7------------------------------------------------------------------------------
     e-----5-5------------------------------------------------------------------------------


   order: intro- 8x
           : chorus-2x
           : intro-10x
           : chorus-4x
           : intro- 4x
           :end-1x
            
Hard to play? Try these video lessons and learn fast. | Correct




comments powered by Disqus
↑ Back to top | Tablatures and chords are parodies/interpretations of the original songs. You may use it for private study, scholarship, research or language learning purposes only