» » »

Stuart And The Ave Tabs (ver.1)

Artists:  A B C D E F G H I J K L M N O P Q R S T U V W X Y Z # 

Stuart And The Ave Tabs (ver.1)

Green Day
Rating:
0/5 (0 votes)

Hard to play? Try these video lessons and learn fast.
                This is a pretty strait forward song.

Verse
|---------------------------------------------------------|
|---------------------------------------------------------|
|-6-6-66-8-8-88---------------6-6-66-8-8-88--------6-6-66-|
|-6-6-66-8-8-88-4-4-44-6-6-66-6-6-66-8-8-88-4-4-44-6-6-66-|
|-4-4-44-6-6-66-4-4-44-6-6-66-4-4-44-6-6-66-4-4-44-4-4-44-|
|---------------2-2-22-4-4-44---------------2-2-22--------|

Chorus
|---------------------------------------------------------|
|---------------------------------------------------------|
|-3-3-33--------3-3-33--------6-6-66-8-8-88-------6-6-6---|
|-3-3-33-4-4-44-3-3-33-4-4-44-6-6-66-8-8-88-4-----6-6-6-6-|
|-1-1-11-4-4-44-1-1-11-4-4-44-4-4-44-6-6-66-4-----4-4-4-6-|
|--------2-2-22--------2-2-22---------------2-----------4-|
            
Hard to play? Try these video lessons and learn fast. | Correct




comments powered by Disqus
↑ Back to top | Tablatures and chords are parodies/interpretations of the original songs. You may use it for private study, scholarship, research or language learning purposes only