» » »

Green Day, Sick Tabs (ver.1)

Artists:  A B C D E F G H I J K L M N O P Q R S T U V W X Y Z # 

Sick Tabs (ver.1)

Green Day Tabs
 Rating:
4/5 (4 votes)
Sick lessons Tabs too difficult? Try these video lessons and learn fast
                Tuning: Standard (EADGBE)

Verse:

  G5               C5 F5
|----------------------------------|4
|----------------------------------|T
|------------------5---------------|I
|-5-5-5-5-5-55555--5-3-3-3-5-5-555-|M
|-5-5-5-5-5-55555--3-3-3-3-5-5-555-|E
|-3-3-3-3-3-33333----1-1-1-3-3-333-|S

Chorus:

  C5      G5      C5 G5
|-----------------------|2
|-----------------------|T
|-5-5-555----------5----|I
|-5-5-555-5-5-555--5-55-|M
|-3-3-333-5-5-555--3-55-|E
|---------3-3-333----33-|S

Post-Chorus

  F5 E5 D5
|------------------|V
|------------------|A
|-10\9-7-7-7-7-777-|R   1 Time and 5
|-10\9-7-7-7-7-777-|I
|--8\7-5-5-5-5-555-|E
|------------------|S

ORDER
Verse
Chorus
Post-Chorus (1 Time)
Verse
Chorus
Post-Chorus (5 Times)
Verse
Chorus
Post Chorus (5 Times)
            
Submit corrections

comments powered by Disqus
↑ Back to top | Green Day Tabs for Sick. Lyrics for acoustic guitar and electric guitar. Tablatures and chords are parodies/interpretations of the original songs. You may use it for private study, scholarship, research or language learning purposes only