» » »

Green Day, She Tabs (ver.2)

Artists:  A B C D E F G H I J K L M N O P Q R S T U V W X Y Z # 

She Tabs (ver.2)

Green Day Tabs
Rating:
0/5 (0 votes)
Hard to play? Try these video lessons and learn fast.
                Tuning: 1/2 step down (sounds a semitone lower than written here)
Notes: Simple but effective 3-chord song, clearly Green Day.

 h = hammer-on
p = pull-off
b = bend
/ = slide up
\ = slide down
5 = power chord
 
Verse
   G5   D5   C5   G5   C5 G5  (x2)
e|---------------------------------------------------------------|
B|---------------------------------------------------------------|
G|------7----5---------5-----------------------------------------|
D|-5----7----5----5-5--5--5--------------------------------------|
A|-5----5----3----5-5--3--5--------------------------------------|
E|-3--------------3-3-----3--------------------------------------|

Chorus
   D5     C5  G5 (x2)  C5   G5 (x3)  D5
e|---------------------------------------------------------------|
B|---------------------------------------------------------------|
G|-7------5------------5-------------7---------------------------|
D|-7------5---5--------5----5--------7---------------------------|
A|-5------3---5--------3----5--------5---------------------------|
E|------------3-------------3------------------------------------|


Order

Intro (bass)
Verse 1 (bass + drums)
Chorus
Verse 2 (guitar palm mutes verse)
Chorus
Bridge (verse chords)
Chorus
End on G5
            

comments powered by Disqus
↑ Back to top | Green Day Tabs for She. Lyrics for acoustic guitar and electric guitar. Tablatures and chords are parodies/interpretations of the original songs. You may use it for private study, scholarship, research or language learning purposes only