» » »

Secret Track Tabs (ver.1)

Artists:  A B C D E F G H I J K L M N O P Q R S T U V W X Y Z # 

Secret Track Tabs (ver.1)

Green Day
Rating:
0/5 (0 votes)

Tabs too difficult? Try these video lessons and learn fast.
                Tiny little song to amuse yourself and your mates
With when sitting around completely p**sed. 

The other versions are fundamentally correct, 
But they are lacking in minor aspects such as 
Key, and the right god*** string to play !! 

E ---------------------------------------|
A --2---2---2---2----|--3---3---3---3----|
G ----2---2---2---2--|----2---2---2---2—-|
D -------------------|--0----------------|
A --0----------------|-------------------|
E -------------------|-------------------|

E -------------------|-------------------|
B –-4---4---4---4----|--5---5---5---5----|
G ----4---4---4---4--|----4---4---4---4--|
D -------------------|--2----------------|
A –-2----------------|-------------------|
E -------------------|-------------------|


This is the song; listen to CD (last track, approx 
4 minutes after the final song) for correct timing.
e.g. lyrics
            
Tabs too difficult? Try these video lessons and learn fast.




comments powered by Disqus
↑ Back to top | Tablatures and chords are parodies/interpretations of the original songs. You may use it for private study, scholarship, research or language learning purposes only