» » »

Green Day, Sassafras Roots Tabs (ver.1)

Artists:  A B C D E F G H I J K L M N O P Q R S T U V W X Y Z # 

Sassafras Roots Tabs (ver.1)

Green Day Tabs
 Rating:
4/5 (4 votes)
Sassafras Roots lessons Tabs too difficult? Try these video lessons and learn fast
                green day
sassafras roots
INTRO
e|---------------------------------------------------------------------|
B|---------------------------------------------------------------------|
G|--6------------------------------------------------------------------|
D|--6--6-3-------------------------------------------------------------|
A|--4--6-3-------------------------------------------------------------|
E|-----4-1-------------------------------------------------------------|

Main Riff                          *-play 6 times
e|---------------------------------------------------------------------|
B|---------------------------------------------------------------------|
G|---------------------------------------------------------------------|
 
 play 6 times
D|-6*-10-11*-7--8*-----------------------------------------------------|
A|-6--10-11--7--8------------------------------------------------------|
E|-4--8---9--5--6------------------------------------------------------|

Chorus
e|---------------------------------------------------------------------|
B|---------------------------------------------------------------------|
G|---------------------------------------------------------------------|
D|-11-8-11--8-11--8-9--------------------------------------------------|
A|-11-8-11--8-11--8-9--------------------------------------------------|
E|-9--6-9---6--9--6-7--------------------------------------------------|

Main Riff
Chorus
e|---------------------------------------------------------------------|
B|---------------------------------------------------------------------|
G|---------------------6*---6*---6*-8*---------------------------------|  
D|-6*-10-11*-7--8*-3*--6-3*-6--3*-6--8---------------------------------|
A|-6--10-11--7--8--3---4-3--4--3--4--6---------------------------------|
E|-4--8---9--5--6--1-----1-----1---------------------------------------|
            
Submit corrections

comments powered by Disqus
↑ Back to top | Green Day Tabs for Sassafras Roots. Lyrics for acoustic guitar and electric guitar. Tablatures and chords are parodies/interpretations of the original songs. You may use it for private study, scholarship, research or language learning purposes only