» » »

Green Day, Platypus Tabs (ver.2)

Artists:  A B C D E F G H I J K L M N O P Q R S T U V W X Y Z # 

Platypus Tabs (ver.2)

Green Day Tabs
 Rating:
4/5 (4 votes)
Platypus lessons Tabs too difficult? Try these video lessons and learn fast
1
                -

 8. Platypus (I Hate You)                                 Green Day - Nimrod


-


INTRO RIFF

E|---------------------------------|

B|---------------------------------|

G|---------------------------------|

D|-9---9-9-9-9-\---5-------4-------|

A|-9---9-9-9-9-\---5-------4-------|

E|-7---7-7-7-7-\---3-------2-------|


VERSE RIFF

E|---------------------------------|---------------------------------|

B|---------------------------------|---------------------------------|

G|---------------------------------|-9---9-9-9-9-9-9-----------------|

D|-9---9-9-9-9-9-9-7---7-7-7-7-7-7-|-9---9-9-9-9-9-9-9---9-9-9-9-9-9-|

A|-9---9-9-9-9-9-9-7---7-7-7-7-7-7-|-7---7-7-7-7-7-7-9---9-9-9-9-9-9-|
E|-7---7-7-7-7-7-7-5---5-5-5-5-5-5-|-----------------7---7-7-7-7-7-7-|


CHORUS RIFF

E|---------------------------------|---------------------------------|

B|---------------------------------|---------------------------------|

G|---------------------------------|---------------------------------|

D|-7---7-7-7-7-7---7---7-7-7-7-7---|-7---7-7-7-7-7---7---7-7-7-7-7---|

A|-7---7-7-7-7-7---7---7-7-7-7-7---|-7---7-7-7-7-7---7---7-7-7-7-7---|

E|-5---5-5-5-5-5---5---5-5-5-5-5---|-5---5-5-5-5-5---5---5-5-5-5-5---|



E|---------------------------------|---------------------------------|

B|---------------------------------|---------------------------------|

G|---------------------------------|---------------------9---9---9---|

D|-7---7-7-7-7-7---7---7-7-7-7-7---|-7---7-7-7-7-7---7---9---9---9-9-|

A|-7---7-7-7-7-7---7---7-7-7-7-7---|-7---7-7-7-7-7---7---7---7---7-9-|

E|-5---5-5-5-5-5---5---5-5-5-5-5---|-5---5-5-5-5-5---5-------------7-|



E|---------------------------------|---------------------------------|

B|---------------------------------|---------------------------------|

G|---------------------------------|---------------------------------|

D|-9---9-9-9-9-9---9---9-9-9-9-9---|-9---9-9-9-9-9---9---9-9-9-9-9---|

A|-9---9-9-9-9-9---9---9-9-9-9-9---|-9---9-9-9-9-9---9---9-9-9-9-9---|

E|-7---7-7-7-7-7---7---7-7-7-7-7---|-7---7-7-7-7-7---7---7-7-7-7-7---|



E|---------------------------------|---------------------------------|

B|---------------------------------|---------------------------------|

G|*--------------------------------|--------------------------------*|

D|*7---7-7-7-7-7---7---7-7-7-7-7---|-7---7-7-7-7-7---7---7-7-7-7-7--*|

A|-7---7-7-7-7-7---7---7-7-7-7-7---|-7---7-7-7-7-7---7---7-7-7-7-7---|

E|-5---5-5-5-5-5---5---5-5-5-5-5---|-5---5-5-5-5-5---5---5-5-5-5-5---|



E|---------------------------------|---------------------------------|

B|---------------------------------|---------------------------------|

G|---------------------------------|---------------------9---9---9---|

D|-4---4-4-4-4-4---4---4-4-4-4-4---|-4---4-4-4-4-4---4---9---9---9-9-|

A|-4---4-4-4-4-4---4---4-4-4-4-4---|-4---4-4-4-4-4---4---7---7---7-9-|

E|-2---2-2-2-2-2---2---2-2-2-2-2---|-2---2-2-2-2-2---2-------------7-|



Verse 1 w/ VERSE RIFF

Your rise and fall

Back up against the wall

What goes around is coming back and haunting you

It's time to quit

Cause you ain't worth the ***

Under my shoes or the p**s on the ground


Chorus w/ CHORUS RIFF

No one loves you and you know it

Don't pretend that you enjoy it or your don't care
Cause now I wouldn't lie or tell you all the things you want to hear.

I HATE YOU I HATE YOU I HATE YOU I HATE YOU


Verse 2 w/ VERSE RIFF

I heard you're sick

Sucked on that cancer stick

A throbbing tumor and a radiation high

*** out of luck
And now your time is up

It brings me pleasure just to know you're going to die.


Chorus

Bridge w/ INTRO RIFF

Dickhead, ***face, cock smoking, mother ***ing, a**hole, dirty twat,

waste of semen, I hope you die HEY


Verse 3 w/ VERSE RIFF

Red eye, code blue

I'd like to strangle you

And watch your eyes bulge right out of your skull

When you go down

Head first into the ground

I'll stand above you just to p**s on your grave
            
Submit corrections

comments powered by Disqus
↑ Back to top | Green Day Tabs for Platypus. Lyrics for acoustic guitar and electric guitar. 1 Tablatures and chords are parodies/interpretations of the original songs. You may use it for private study, scholarship, research or language learning purposes only