» » »

My Generation Tabs (ver.1)

Artists:  A B C D E F G H I J K L M N O P Q R S T U V W X Y Z # 

My Generation Tabs (ver.1)

Green Day
Rating:
0/5 (0 votes)

Hard to play? Try these video lessons and learn fast.
                Green Day
My Generation

Author Notes: This is one of the easiest songs ever to play. Its a great
song to learn to play on. So everyone enjoy!!

Intro / Chorus
e|---------------------------------|
B|---------------------------------|
G|---------------------------------|
D|-4-4-4-4-2-2-2-2-4-4-4-4-2-2-2-2-|
A|-4-4-4-4-2-2-2-2-4-4-4-4-2-2-2-2-|
E|-2-2-2-2-0-0-0-0-2-2-2-2-0-0-0-0-|

Verse
e|---------------------------|
B|---------------------------|
G|---------------------------|
D|-4-----4-4-4-4-4-2-2-2-2-2-|
A|-4-----4-4-4-4-4-2-2-2-2-2-|
E|-2-----2-2-2-2-2-0-0-0-0-0-|

Verse 2
e|---------------------------|
B|---------------------------|
G|---------------------------|
D|-6-----6-6-6-6-6-4-4-4-4-4-|
A|-6-----6-6-6-6-6-4-4-4-4-4-|
E|-4-----4-4-4-4-4-2-2-2-2-2-|

Chorus 2
e|---------------------------------|
B|---------------------------------|
G|---------------------------------|
D|-6-6-6-6-4-4-4-4-6-6-6-6-4-4-4-4-|
A|-6-6-6-6-4-4-4-4-6-6-6-6-4-4-4-4-|
E|-4-4-4-4-2-2-2-2-4-4-4-4-2-2-2-2-|
            
Hard to play? Try these video lessons and learn fast. | Correct




comments powered by Disqus
↑ Back to top | Tablatures and chords are parodies/interpretations of the original songs. You may use it for private study, scholarship, research or language learning purposes only