» » »

Green Day, Misery Tabs (ver.3)

Artists:  A B C D E F G H I J K L M N O P Q R S T U V W X Y Z # 

Misery Tabs (ver.3)

Green Day Tabs
 Rating:
4/5 (4 votes)
Misery lessons Tabs too difficult? Try these video lessons and learn fast
1
                Released: 2000 reprise records
Track: 6

: - let ring


intro

|---------------------------------|
|-2-2-2-2-2-2-2-2-2-2-2-2-2-2-2-2-|
|-3-3-3-3-3-3-3-3-3-3-3-3-3-3-3-3-|
|-3-3-3-3-3-3-3-3-3-3-3-3-3-3-3-3-|
|-1-1-1-1-1-1-1-1-1-1-1-1-1-1-1-1-|
|---------------------------------|

verse

|-------------------------------------------------------------------------
|-2--2--2--2--2--2--2--2--2--2--2--2--2--2--2--2--2--2--2--2--------------
|-3--3--3--3--3--3--3--3--3--3--3--3--3--3--3--3--3--3--3--3--2--2--2--2--
|-3--3--3--3--3--3--3--3--3--3--3--3--3--3--3--3--3--3--3--3--3--3--3--3--
|-1--1--1--1--1--1--1--1--1--1--1--1--1--1--1--1--1--1--1--1--3--3--3--3--
|-------------------------------------------------------------1--1--1--1--

 -----------------------------------------------|
 -2--2--2--2--2:---1:---------------2--2--2--2--|
 -3--3--3--3--3:---2:---2--2--2--2--3--3--3--3--|
 -3--3--3--3--3:---3:---3--3--3--3--3--3--3--3--|
 -1--1--1--1--1:---0:---3--3--3--3--1--1--1--1--|
 -----------------------1--1--1--1--------------|

chorus

|-------------------------------------------------------------------------
|-------------2--2--2--2--------------2--2--2--2--------------2--2--2--2--
|-2--2--2--2--3--3--3--3--2--2--2--2--3--3--3--3--2--2--2--2--3--3--3--3--
|-3--3--3--3--3--3--3--3--3--3--3--3--3--3--3--3--3--3--3--3--3--3--3--3--
|-3--3--3--3--1--1--1--1--3--3--3--3--1--1--1--1--3--3--3--3--1--1--1--1--
|-1--1--1--1--------------1--1--1--1--------------1--1--1--1--------------

 -------------------------|
 -------------------------|
 -2-2-2-2-2-2-2-2-2-2-2-2-|
 -2-2-2-2-2-2-3-3-3-3-3-3-|
 -2-2-2-2-2-2-3-3-3-3-3-3-|
 -0-0-0-0-0-0-1-1-1-1-1-1-|

bridge

|-------------------------------------------------------------------------
|-----------------2--2--2--2------------------2--2--2--2------------------
|-3-3-3-3-2-2-2-2-3--3--3--3--3-3-3-3-2-2-2-2-3--3--3--3--3-3-3-3-2-2-2-2-
|-4-4-4-4-3-3-3-3-3--3--3--3--4-4-4-4-3-3-3-3-3--3--3--3--4-4-4-4-3-3-3-3-
|-4-4-4-4-3-3-3-3-1--1--1--1--4-4-4-4-3-3-3-3-1--1--1--1--4-4-4-4-3-3-3-3-
|-2-2-2-2-1-1-1-1-------------2-2-2-2-1-1-1-1-------------2-2-2-2-1-1-1-1-

 ---------------------------------------|
 -2--2--2--2----------------------------|
 -3--3--3--3--3-3-3-3-3-3-3-3-2-2-2-2-2-|
 -3--3--3--3--4-4-4-4-4-4-4-4-3-3-3-3-3-|
 -1--1--1--1--4-4-4-4-4-4-4-4-3-3-3-3-3-|
 -------------2-2-2-2-2-2-2-2-1-1-1-1-1-|

lyrics

virginia was a lot lizard from f.l.a.
she had a compound fracture in the "trunk"
it started when she run away thumbs out out on the interstate
she hitched a ride to misery
mr. whirly had a catastrophic incident he fell into the city by the bay
he liquidated his estate now he sleeps upon the haight
panhanding misery 
he's gonna get high when he's low the fire burns from better days
and she screems why oh why i said i don't know
the catastrophic hymnes from yesterday of misery
vinnie was a hustler out of amsterdam he ran the drug cartel in tinseltown
they found him in a cadillac bludgeoned with a baseball bat in the name of misery
gina hit the road to new york city
mysteriously the night vinnie croaked
she stopped in vegas to elope with virgina and the dope
and kissed the bride eternally
and they're gonna get high when they're low
the fire burns from better days
and he screems why oh why i said i don't know
the catastrophic hymnes from yesterday of misery
hell hounds on your trail now once again boy
it's groping on your leg until it sleeps
the emptiness will fill your soul with sorrow
because it's not what you make it's what you leave
and we're gonna get high when i'm low
the fire burns from better days
and she screems why oh why i said i don't know
the catastrophic hymnes from yesterday
of misery
            
Submit corrections

comments powered by Disqus
↑ Back to top | Green Day Tabs for Misery. Lyrics for acoustic guitar and electric guitar. 1 Tablatures and chords are parodies/interpretations of the original songs. You may use it for private study, scholarship, research or language learning purposes only