» » »

Maria Tabs (ver.3)

Artists:  A B C D E F G H I J K L M N O P Q R S T U V W X Y Z # 

Maria Tabs (ver.3)

Green Day
Rating:
0/5 (0 votes)

Hard to play? Try these video lessons and learn fast.
                This is a cool song off Superhits. The solo might be hard
  at first, but you don't HAVE to have the bends in. It just
  makes it sound better.

  Intro/Verse                             
 |---------------------------------------------|
 |-3-3-3---------------------------------------|
 |-2-2-2-2--2----------------------------------|
 |-0-0-0-2--2(x-x-x-x-x-x-x-x-x-x-x-x-x-x-x-x)-|
 |-------0--0----------------------------------|
 |---------------------------------------------|


  Pre-chorus                              
 |-----|-------------------------------|
 |-----|-------9-9-9-9-9-9-9-9-9-9-9-9-|
 |-----|-------9-9-9-9-9-9-9-9-9-9-9-9-|
 |-----|-7-6---9-9-9-9-9-9-9-9-9-9-9-9-|
 |-----|-x-x---7-7-7-7-7-7-7-7-7-7-7-7-|
 |-12\-|-5-4-0-------------------------|


  Chorus
  
   D       A    D      A         D      A                Emaj(7th fret) 
  Mari_____a, Mari_____a-a-aa, Mari_____a, where did you go?

   D       A    D      A         D      A                Emaj(7th fret)    
  Mari_____a, Mari_____a-a-aa, Mari_____a, where did you go?


 Bridge
                              (x2)
|---------------------------------|
|---------------------10----------|
|---------------------9---9-------|
|-----9---9-------7-7-7---7-7-9---|
|-7-7-7---7-7-7---------------7---|
|---------------------------------|

                                                        (x2)
|----------------------------------------------------------|
|-9-x-101010-x-121212-x-101010-x-9-x-101010-x-121212-101010|
|-9-x-9-9-9--x-111111-x-9-9-9--x-9-x-9-9-9--x-111111-9-9-9-|
|-9-x-7-7-7--x-9-9-9--x-7-7-7--x-9-x-7-7-7--x-9-9-9--7-7-7-|
|-7------------------------------7-------------------------|
|----------------------------------------------------------|

  Solo                            
                                  (x3)   
 |-0--0---0-----------5-------5-------
 |-7--8--10---------5------5-------5--
 |------------7b--------7b------7b----
 |------------------------------------
 |------------------------------------
 |------------------------------------
                     
 -|-4---4-5---5-7---5---4--|-5~--|
 -|-5---5-5---5-5---5---5--|-----|
 -|------------------------|-----|
 -|------------------------|-----|
 -|------------------------|-----|
 -|------------------------|-----|
  (Play the seperate note on the last time only)

 Ok, you've got all the parts there, now go play! 
 P.S. has anyone got the tab book version for this? 
            
Hard to play? Try these video lessons and learn fast. | Correct




comments powered by Disqus
↑ Back to top | Tablatures and chords are parodies/interpretations of the original songs. You may use it for private study, scholarship, research or language learning purposes only