» » »

Green Day, Macy's Day Parade Bass tabs (ver.3)

Artists:  A B C D E F G H I J K L M N O P Q R S T U V W X Y Z # 

Macy's Day Parade Bass tabs (ver.3)

Green Day Tabs
Rating:
0/5 (0 votes)
Hard to play? Try these video lessons and learn fast.
                This has to be right. I played it with the song and it sounded perfect. 
This is my first tab though so I may have made a few errors. This is 
all layed out so you can play straight through this page and it is the 
song. It is all in order as it is. Please rate this tab, I really wanna 
know what people think of it.


Guitar solo for intro.
Start with the drums.

G[----------------------------------------------------------------]
D[----------------------------------------------------------------]
A[-222-222-222-222-2--------------------------------22-222-222-222]
E[------------------44-444-444-444-400-000-022-222-2--------------]

G[----------------------------------------------------------------]
D[-222-222-222-222-244-444-444-444-422-222-222-222-244-444-444-444]
A[----------------------------------------------------------------]
E[----------------------------------------------------------------]

G[--------------------------------------------------------------------------------]
D[--------------------------------------------------------------------------------]
A[-222-222-222-222-222-222-222-222-2--------------------------------22-222-222-222]
E[----------------------------------44-444-444-444-400-000-022-222-2--------------]

G[----------------------------------------------------------------]
D[----------------------------------------------------------------]
A[-222-222-222-222-2--------------------------------22-222-222-222]
E[------------------44-444-444-444-400-000-022-222-2--------------]

G[----------------------------------------------------------------]
D[-222-222-222-222-244-444-444-444-4------------------------------]
A[----------------------------------22-111-1----------------------]
E[------------------------------------------44-422-200-000-022-222]

G[--------------------------------------------------------------------------------]
D[--------------------------------------------------------------------------------]
A[-222-222-222-222-222-222-222-222-2--------------------------------22-222-222-222]
E[----------------------------------44-444-444-444-400-000-022-222-2--------------]

G[----------------------------------------------------------------]
D[----------------------------------------------------------------]
A[-222-222-222-222-2--------------------------------22-222-222-222]
E[------------------44-444-444-444-400-000-022-222-2--------------]

G[----------------------------------------------------------------]
D[-222-222-222-222-244-444-444-444-422-222-222-222-244-444-444-444]
A[----------------------------------------------------------------]
E[----------------------------------------------------------------]

G[----------------------------------------]
D[----------------------------------------]
A[-222-211-1------------------------22-211]
E[----------44-422-200-000-022-222-2------]

G[----------------------------------------------------]
D[----------------------------------------------------]
A[-1-----------------------222-211-1------------------]
E[--44-422-200-000-022-222----------44-422-200-000-022]



G[-----------------------------------]
D[-----------------------------------]
A[-222-222-222-222-222-222-222-222222]
E[-----------------------------------]
            

comments powered by Disqus
↑ Back to top | Green Day Bass for Macy's Day Parade. Lyrics for acoustic guitar and electric guitar. Tablatures and chords are parodies/interpretations of the original songs. You may use it for private study, scholarship, research or language learning purposes only