» » »

Green Day, I Want To Be On T.V Tabs (ver.1)

Artists:  A B C D E F G H I J K L M N O P Q R S T U V W X Y Z # 

I Want To Be On T.V Tabs (ver.1)

Green Day Tabs
 Rating:
4/5 (4 votes)
I Want To Be On T.V lessons Tabs too difficult? Try these video lessons and learn fast
1
                Daniel Rowley
Green Day
I Want to be on Tv
Tune 1 fret down

Verse:
|------------------------------|
|------------------------------|
|6-4-6-4-6-4-6-4-4-4-4---------|
|6-4-6-4-6-4-6-4-4-4-4---------|
|4-4-4-4-4-4-4-2-2-2-2---------|
|------------------------------|

Chorus:
|-------------------------------|
|-------------------------------|
|2-2-2-2-4-4-4-4-6-6-6-6-7-7-7-7|
|2-2-2-2-4-4-4-4-6-6-6-6-7-7-7-7|
|0-0-0-0-2-2-2-2-4-4-4-4-5-5-5-5|
|-------------------------------|

and that is it. the complete tab
            
Submit corrections

comments powered by Disqus
↑ Back to top | Green Day Tabs for I Want To Be On T.V. Lyrics for acoustic guitar and electric guitar. 1 Tablatures and chords are parodies/interpretations of the original songs. You may use it for private study, scholarship, research or language learning purposes only