» » »

Green Day, I Want To Be Alone Tabs (ver.2)

Artists:  A B C D E F G H I J K L M N O P Q R S T U V W X Y Z # 

I Want To Be Alone Tabs (ver.2)

Green Day Tabs
 Rating:
4/5 (4 votes)
I Want To Be Alone lessons Tabs too difficult? Try these video lessons and learn fast
1
                green day
i want to be alone
Verse
e|----------------------------------|
B|----------------------------------|
G|-----0-------0-----0---0--0---0---|
D|----4-4--4--4-4---0--0---0---0----|
A|-555----5555---5-5--3---5---3---5-|
E|----------------------------------|

Chorus
e|-------------------------|
B|-------------------------|
G|-------------77777-------|
D|-55555-77777-77777-99999-|
A|-55555-77777-55555-99999-|
E|-33333-55555-------77777-|

Solo
e|-----------------------------------------------------------------------------|
B|---------(7)-(7)-(8)-(8)-(7)-(7)-(10)-(10)-(7)-(7)-(8)-(8)-(7)---------------|
G|-(7)-(7)---------------------------------------------------------0--0--0--0--|
D|----------------------------------------------------------------0--0--0--0---|
A|---------------------------------------------------------------5--3--5--3--5-|
E|-----------------------------------------------------------------------------|

e|---------------------------------14-------------17-15-14----14-15--------|
B|-15b-15b-17b-17b--17-15-14----------17-15-14-------------17-------15-17b-|
G|---------------------------16-14-------------16--------------------------|
D|-------------------------------------------------------------------------|
A|-------------------------------------------------------------------------|
E|-------------------------------------------------------------------------|

e|--------------13-13-----13-13-----13-13-----13-13-----|
B|-17b-17b------13-13-----13-13-----13-13-----13-13-13--|
G|----------15b-------15b-------15b-------15b-------15b-|
D|------------------------------------------------------|
A|------------------------------------------------------|
E|------------------------------------------------------|
            
Submit corrections

comments powered by Disqus
↑ Back to top | Green Day Tabs for I Want To Be Alone. Lyrics for acoustic guitar and electric guitar. 1 Tablatures and chords are parodies/interpretations of the original songs. You may use it for private study, scholarship, research or language learning purposes only