» » »

Green Day, Hitchin' A Ride Tabs (ver.1)

Artists:  A B C D E F G H I J K L M N O P Q R S T U V W X Y Z # 

Hitchin' A Ride Tabs (ver.1)

Green Day Tabs
Rating:
0/5 (0 votes)
Hitchin' A Ride lessons Tabs too difficult? Try these video lessons and learn fast
                verse - pre chorus
|---------------------------|
|---------------------------|
|---------------------------|
|-9--9--7--7--6--6--5-5-5-5-|
|-9--9--7--7--6--6--5-5-5-5-|
|-7--7--5--5--4--4--3-3-3-3-|

chorus
|---------------------------------------------------------
|---------------------------------------------------------
|---------------------------------------------------------
|-2-2-2-2-2-2-4-4-4-4-4-4-9-9-9-9-7-7-7-7-6-6-6-6-5-5-5-5-
|-2-2-2-2-2-2-4-4-4-4-4-4-9-9-9-9-7-7-7-7-6-6-6-6-5-5-5-5-
|-0-0-0-0-0-0-2-2-2-2-2-2-7-7-7-7-5-5-5-5-4-4-4-4-3-3-3-3-

 -------------------------|
 -------------------------|
 -------------------------|
 -2-2-2-2-2-2-4-4-4-4-4-4-|
 -2-2-2-2-2-2-4-4-4-4-4-4-|
 -0-0-0-0-0-0-2-2-2-2-2-2-|

solo
|-------------------------------------------------------------------
|-12-12-12-12-12-12-15-15-15-15-15-15-12-12-12-12-12-12-8-8-8-7-7-7-
|--x--x--x--x--x--x--x--x--x--x--x--x--x--x--x--x--x--x-x-x-x-x-x-x-
|--9--9--9--9--9--9-12-12-12-12-12-12--9--9--9--9--9--9-5-5-5-4-4-4-
|-------------------------------------------------------------------
|-------------------------------------------------------------------

 -----------------------------------------------------------
 -12-12-12-12-12-12-15-15-15-15-15-15-17b-17b-17b-17b-17-17-
 --x--x--x--x--x--x--x--x--x--x--x--x--x---x---x---x---x--x-
 --9--9--9--9--9--9-12-12-12-12-12-12-14b-14b-14b-14b-14-14-
 -----------------------------------------------------------
 -----------------------------------------------------------

 -----------------------------------------------------------------
 -17-15-12-15--17-15-12-15--17-15-12-10--12-15-12-10--12-15-17-15-
 --x--x--x--x---x--x--x--x---x--x--x--x---x--x--x--x---x--x--x--x-
 -14-12--9-12--14-12--9-12--14-12--9--7---9-12--9--7---9-12-14-12-
 -----------------------------------------------------------------
 -----------------------------------------------------------------

 --------------------------------------|
 -12-15-17-15--12-15-17-15---17b----17-|
 --------------------------------------|
 --9-12-14-12---9-12-14-12---14b----14-|
 --------------------------------------|
 --------------------------------------|

outro
|-------------------------------------|
|-------------------------------------|
|-------------------------------------|
|-9-9-9-9-12-12-12-12-5-5-5-5-4-4-4-4-|
|-9-9-9-9-12-12-12-12-5-5-5-5-4-4-4-4-|
|-7-7-7-7-10-10-10-10-3-3-3-3-2-2-2-2-|
            
Submit corrections

comments powered by Disqus
↑ Back to top | Green Day Tabs for Hitchin' A Ride. Lyrics for acoustic guitar and electric guitar. Tablatures and chords are parodies/interpretations of the original songs. You may use it for private study, scholarship, research or language learning purposes only