» » »

Green Day, Having A Blast Tabs (ver.1)

Artists:  A B C D E F G H I J K L M N O P Q R S T U V W X Y Z # 

Having A Blast Tabs (ver.1)

Green Day Tabs
Rating:
0/5 (0 votes)
Having A Blast lessons Tabs too difficult? Try these video lessons and learn fast
                green day
having a blast
Intro
e|--------------------|
B|--------------------|
G|-22222--------------|
D|-22222-55-----------|
A|-00000-55-------2---|
E|-------33-00-33---3-|

Verse
e|-----------------------------------------------------------|
B|-----------------------------------------------------------|
G|--P.M.-----------------------------------------------------|
D|-22222222222222222222222222222222-44444444444-55555-222222-|
A|-00000000000000000000000000000000-44444444444-55555-222222-|
E|----------------------------------22222222222-33333-000000-|

Pre Chorus
e|--------------------------------------------------|
B|--------------------------------------------------|
G|-77777777777--------------------------------------|
D|-77777777777-77777777777-999999999999-55555555555-|
A|-55555555555-77777777777-999999999999-55555555555-|
E|-------------55555555555-777777777777-33333333333-|

Chorus
e|--------------|
B|--------------|
G|--------------|
D|-77777-555555-|
A|-77777-555555-|
E|-55555-333333-|

Bridge
e|-------------------------------------|
B|-------------------------------------|
G|-------------------------------7-----|
D|-7--444444-9--222222-7--444444-7-7-2-|
A|-7--444444-9--222222-7--444444-5-7-2-|
E|-5--222222-7--000000-5--222222---5-0-|

e|----------------------------------------------------|
B|----------------------------------------------------|
G|-------777777---------------------------------------|
D|-44444-777777-77777777777-44444-555555-7-77-6/77777-|
A|-44444-555555-77777777777-44444-555555-7-77-6/77777-|
E|-22222--------55555555555-22222-333333-5-55-4/55555-|

e|---------------------------------------|
B|---------------------------------------|
G|-------777777--------------------------|
D|-44444-777777-77777777777-44444-555555-|
A|-44444-555555-77777777777-44444-555555-|
E|-22222--------55555555555-22222-333333-|
            

comments powered by Disqus
↑ Back to top | Green Day Tabs for Having A Blast. Lyrics for acoustic guitar and electric guitar. Tablatures and chords are parodies/interpretations of the original songs. You may use it for private study, scholarship, research or language learning purposes only