» » »

Green Day, Haushinka Tabs (ver.3)

Artists:  A B C D E F G H I J K L M N O P Q R S T U V W X Y Z # 

Haushinka Tabs (ver.3)

Green Day Tabs
 Rating:
4/5 (4 votes)
Haushinka lessons Tabs too difficult? Try these video lessons and learn fast
                green day
haushinka
Intro/verse
e|-2-----3-----5-----3-----|
B|---3~----3~----3~----3~--|
G|-------------------------|
D|-------------------------|
A|-------------------------|
E|-------------------------|

Chorus
e|-------------------------|-----------------------|
B|-------------------------|-----------------------|
G|-77777-55555-------------|-----------------------|
D|-77777-55555-55555-33355-|-33355-33355-777777777-|
A|-55555-33333-55555-33355-|-33355-33355-777777777-|
E|-------------33333-11133-|-11133-11133-555555555-|

Bridge
e|----------------------------------|
B|----------------------------------|
G|----------------------------------|
D|-99999-77777-4/55555555-4/5555555-|
A|-99999-77777-4/55555555-4/5555555-|
E|-77777-55555-2/33333333-2/3333333-|

e|----------------------------------|
B|----------------------------------|
G|-------------...pm...............-|
D|-99999-77777-55555555-77777777777-|
A|-99999-77777-55555555-77777777777-|
E|-77777-55555-33333333-55555555555-|

e|--------------|
B|--------------|
G|---77---------|
D|-7-77-55-7777-|
A|-7-55-55-7777-|
E|-5----33-5555-|

Solo
e|--------------------------------------------------------------------------|
B|-3-5-6-5-3-5-6\5-3--2-3-5-3-2-3-5\3-2--3-5-6-5-3-5-6\5-3-5555555555555555-|
G|--------------------------------------------------------------------------|
D|--------------------------------------------------------------------------|
A|--------------------------------------------------------------------------|
E|--------------------------------------------------------------------------|
            
Submit corrections

comments powered by Disqus
↑ Back to top | Green Day Tabs for Haushinka. Lyrics for acoustic guitar and electric guitar. Tablatures and chords are parodies/interpretations of the original songs. You may use it for private study, scholarship, research or language learning purposes only