» » »

Good Riddence Tabs (ver.2)

Artists:  A B C D E F G H I J K L M N O P Q R S T U V W X Y Z # 

Good Riddence Tabs (ver.2)

Green Day
Rating:
0/5 (0 votes)

Hard to play? Try these video lessons and learn fast.
                He does some messing at the begining. I'm only playing 1 month but
figured it out and it soumds dead on to me and everyone else.

E------------------------------------------------------------
B----------------------3--------3---------3--------3---------
G----0-----0------------0-0------0-0-------0-0------0-0------
D-----0-----0-----------------------------------3-3--3-------
A--------------------------------------3-3--3----------------
E-3-3---3-3---------3-3--3---3-3--3--------------------------

E------------------------------------------------------------
B---3--------3---------3--------3----------------------------
G--0-0------0-0-------0-0------0-0---------------------------
D-----------------------------3-3--3-------------------------
A--------------------3-3--3----------------------------------
E-3-3--3---3-3--3--------------------------------------------

E------------------------------------------------------------
B-----0----------3---------3--------3------------------------
G------0-0---2-2--2-2-------0-0------0-0---------------------
D--2-2--2----------0-----------------------------------------
A-----------------------3-3--3-------------------------------
E--------------------------------3-3--3----------------------

E------------------------------------------------------------
B-----0----------3---------3--------3-----------0------------
G------0-0---2-2--2-2-------0-0------0-0---------0-0---------
D--2-2--2----------0-------------------------2-2--2----------
A-----------------------3-3--3-------------------------------
E--------------------------------3-3--3----------------------

E------------------------------------------------------------
B-----0-------3-------0-------3---------0---------3----------
G------0-0---0-0-------0-0---0-0---------0-0-----0-0---------
D--2-2--2----------2-2--2------------2-2--2------------------
A------------------------------------------------------------
E-----------3-3--3----------3-3--3--------------3-3--3-------

Then into the song!!
            
Hard to play? Try these video lessons and learn fast. | Correct




comments powered by Disqus
↑ Back to top | Tablatures and chords are parodies/interpretations of the original songs. You may use it for private study, scholarship, research or language learning purposes only