» » »

Green Day, Good Riddance Chords (ver.1)

Artists:  A B C D E F G H I J K L M N O P Q R S T U V W X Y Z # 

Good Riddance Chords (ver.1)

Green Day Tabs
 Rating:
4/5 (4 votes)
Good Riddance lessons Tabs too difficult? Try these video lessons and learn fast
                    
* This tab is actually done by my friend [ K.T Lim ] and i did 
  some corrections as well as posting it *

This is somewhat a correction to all the tabs. 
I find that this version is fairly accurate and 
is worth playing. It is also a very easy song to 
play and is cathcy. The only hard part is the
strumming ^_^' . Play it with correct timing and
rythm. The best is to listen to the CD. 


  G     Em      Cadd9    D      C
--3-----0--------3-------2------0---
--3-----0--------3-------3------1---
--0-----0--------0-------2------0---
--0-----2--------2-------0------2---
--2-----2--------3-------x------3---
--3-----0--------x-------x------x---


Intro

|-----------------------------|
|-----------------------------|
|-------0---------------0-----|
|---------0---------------0---|                                       
|-----------------------------|                                       
|---3-3-------------3-3-------|

Verse 1

- Play 4 times (twice without vocals, twice with vocals)
	G		  G		   Cadd9		D
|-----------------------------------------------------------|
|-------3-------------3-------------3-------------3---------|
|-----0---0---0-----0---0---0-----0---0---------2---2---2---|
|-----------0-------------0-------------2-----0-------0-----|         
|-------------------------------3---------3-----------------|         
|---3-------------3-----------------------------------------|

1.	-
2.	-
3. Another turning point a fork stuck in the road
4. Time grabs you by the wrist directs you where to go

- Play twice
	Em		  D			C		G
|-----------------------------------------------------------|
|-------0-------------3-------------1-------------3---------|
|-----0---0---0-----2---2---2-----0---0---0-----0---0---0---|
|-----------2-----0-------0-------------2-------------0-----|         
|---2---------------------------3---------------------------|         
|---------------------------------------------3-------------|

1. So make the best of this test and don't ask why
2. It's not a question but a lesson learned in time

- Play once
	Em		  G 			Em		G
|-----------------------------------------------------------|
|-------0-------------3-------------0-------------3---------|
|-----0---0---0-----0---0---0-----0---0---0-----0---0---0---|
|-----------2-------------0-------------2-------------0-----|         
|---2---------------------------2---------------------------|         
|-----------------3---------------------------3-------------|

1. It's something unpredictable but in the end it's right, .....
	Em		   D
|---------------------------------|
|-------0-------------3-----------|
|-----0---0---0-----2---2---------|
|-----------2-----0-------0-------|                                   
|---2-----------------------(0)---|                                   
|---------------------------------|

... I hope you had the time of your ..

Strumming part.

- Simply strum it with the rythem. The best way to play is to strum the 
top three strings a few times then strum the lower three strings 
repeatedly while sometimes hitting it hard.

G G Cadd9 D
..Life

G G Cadd9 D

  G         G           Cadd9                D
  So take the fotographs and still frames in your mind
  G            G             Cadd9           D
  Hang it on a shelf of good health amd good time
  Em         D            C            G
  Tattoos of memories and dead skin on trial
  Em           D            C             G
  For wat it's worth it was worth all the while
  Em                  G             Em              G
  It's something unpredictable, but in the end it's right
    Em               D            G
  I hope you had the time of your life


Now a bridge starts, with the violin

  G  G Cadd9 D (4 times)
  Em  D C G (2 times)

  Em                  G             Em              G
  It's something unpredictable, but in the end it's right
    Em               D            G
  I hope you had the time of your life

  G   Cadd9  D 
  G  G  Cadd9  D 


The ending part ...

	Em		  G 			Em		G
|-----------------------------------------------------------|
|-------0-------------3-------------0-------------3---------|
|-----0---0---0-----0---0---0-----0---0---0-----0---0---0---|
|-----------2-------------0-------------2-------------0-----|         
|---2---------------------------2---------------------------|         
|-----------------3---------------------------3-------------|

1. It's something unpredictable, but in the end its right, ....

	Em		   D
|---------------------------------|
|-------0-------------3-----------|
|-----0---0---0-----2---2---------|
|-----------2-----0-------0-------|                                   
|---2-----------------------(0)---|                                   
|---------------------------------|

2. I Hope you had a time of your ....

	G		  G		   Cadd9		D
|-----------------------------------------------------------|
|-------3-------------3-------------3-------------3---------|
|-----0---0---0-----0---0---0-----0---0---------2---2---2---|
|-----------0-------------0-------------2-----0-------0-----|         
|-------------------------------3---------3-----------------|         
|---3-------------3-----------------------------------------|

 ... life. ...

Play this slowly ... 

	G    		              Cadd9         D
|-----------------------------------------------------------3---|
|-------3-----3-------3-------------3-------------3---------3---|
|-----0---0---------0---0---0-----0---0---------2---2-2-0---0---|
|-----------0-------------0-------------2-----0-------------0---|     
|-------------------------------3---------3-----------------2---|    
|---3-------------3-----------------------------------------3---|
            
Submit corrections

comments powered by Disqus
↑ Back to top | Green Day Chords for Good Riddance. Lyrics for acoustic guitar and electric guitar. Tablatures and chords are parodies/interpretations of the original songs. You may use it for private study, scholarship, research or language learning purposes only