» » »

Going To Pasalacqua Bass tabs (ver.2)

Artists:  A B C D E F G H I J K L M N O P Q R S T U V W X Y Z # 

Going To Pasalacqua Bass tabs (ver.2)

Green Day
Rating:
0/5 (0 votes)

Hard to play? Try these video lessons and learn fast.
                Verse 1
G|---------------------------------|---------------------------------|
D|---------------------------------|---------------------------------|
A|---------------------------------|-5---5---5-5-5-5---5-5---5-5-5-5-|
E|-0---0---0-0-0-0---0-0---0-0-0-0-|---------------------------------|

G|---------------------------------|
D|---------------------------------|
A|---------------------------------| x2
E|-5---5---5-5-5-5---5-5---5-5-5-5-|

G|---------------------------------|---------------------------------|
D|---------------------------------|---------------------------------|
A|---------------------------------|-5---5---5-5-5-5---5-5---5-5-5-5-|
E|-0---0---0-0-0-0---0-0---0-0-0-0-|---------------------------------|

G|---------------------------------|
D|---------------------------------|
A|---------------------------------|
E|-5---5---5-5-5-5---5-5---5-5-5-5-|

Pre-Chorus
G|---------------------------------|---------------------------------|
D|---------------------------------|---------------------------------|
A|-5---5---5-5-5-5-----------------|---------------------------------|
E|-------------------5-5---5-5-5-5-|-0---0---0-0-0-0---0-0---0-0-0-0-|

G|---------------------------------|---------------------------------|
D|---------------------------------|---------------------------------|
A|-5---5---5-5-5-5---5-5---5-5-5-5-|---------------------------------|
E|---------------------------------|-5---5---5-5-5-5---5-5---5-5-5-5-|

G|---------------------------------|---------------------------------|
D|---------------------------------|---------------------------------|
A|-5---5---5-5-5-5-----------------|---------------------------------|
E|-------------------5-5---5-5-5-5-|-0---0---0-0-0-0---0-0---0-0-0-0-|

G|---------------------------------|
D|---------------------------------|
A|---------------------------------|
E|-5-5-5-5-5-5-5-5-5-5-5-5-5-5-5-5-|

Chorus
G|---------------------------------|---------------------------------|
D|---------------------------------|---------------------------------| -
A|---------------------------------|---------------------------------|  |
E|-----5---5-5-5-5---5-5---5-5-5-5-|-0---0---0-0-0-0---0-0---0-0-0-0-|  |
                                                                      x2|
G|---------------------------------|---------------------------------|  |
D|---------------------------------|---------------------------------|  |
A|---------------------------------|-5-5-5-5-5-5-5-5-5-5-5-5-5-5-5-5-| -
E|-2---2---2-2-2-2---2-2---2-2-2-2-|---------------------------------|

G|---------------------------------|---------------------------------|
D|---------------------------------|---------------------------------|
A|---------------------------------|---------------------------------|
E|---5---5-5-5-5-5-5-5-5-5-5-5-5-5-|-5-5-5-5-5-5-5-5-5-5-5-5-5-5-5-5-|

Verse 2
G|---------------------------------|---------------------------------|
D|---------------------------------|---------------------------------|
A|---------------------------------|-5---5---5-5-5-5---5-5---5-5-5-5-|
E|-0---0---0-0-0-0---0-0---0-0-0-0-|---------------------------------|

G|---------------------------------|---------------------------------|
D|---------------------------------|---------------------------------|
A|---------------------------------|---------------------------------|
E|-5---5---5-5-5-5---5-5---5-5-5-5-|-5-5-5-5-5-5-5-5-5-5-5-5-5-5-5-5-|

G|-9-7-6-7-6-4-2-4-----------------|---------------------------------|
D|-----------------7-5-4-5-4-2-0-2-|---------------------------------|
A|---------------------------------|---------------------------------|
E|---------------------------------|-5-5-5-5-5-5-5-5-5-5-5-5-5-5-5-5-|

G|---------------------------------|---------------------------------|
D|---------------------------------|---------------------------------|
A|---------------------------------|-5---5---5-5-5-5---5-5---5-5-5-5-|
E|-0---0---0-0-0-0---0-0---0-0-0-0-|---------------------------------|

G|---------------------------------|
D|---------------------------------|
A|---------------------------------|
E|-5---5---5-5-5-5---5-5---5-5-5-5-|

Pre-Chorus

Chorus

Bridge
G|-------------------------2-2-4-2-|    |-2-2-----------------------------|
D|-----------------0-0-4-4---------|    |-----5-5-4-4-2-2-----------------|
A|-0-0-4-4-5-5-7-7-----------------| x3 |-----------------5-5-4-4-2-2-0-0-|
E|---------------------------------|    |---------------------------------|

G|---------------------------------|
D|---------------------------------|
A|---------------5---5-5---5-5-5-5-| x3
E|-5---5---5-5-5-------------------|

G|---------------------------------|---------------------------------|
D|---------------------------------|-7---5---4---2-------------------|
A|---------------------------------|-----------------5---4---2---0---|
E|-5-5-5-5-5-5-5-5-5-5-5-5-5-5-5-5-|---------------------------------|

Pre-Chorus

Chorus

Outro
G|---------------------------------|---------------------------------|
D|---------------------------------|---------------------------------|
A|---------------------------------|---------------------------------|
E|-----5---5-5-5-5---5-5---5-5-5-5-|-0---0---0-0-0-0---0-0---0-0-0-0-|

G|---------------------------------|---------------------------------|
D|---------------------------------|---------------------------------|
A|---------------------------------|-----5---5-5-5-5---5-5---5-5-5-5-|
E|-2---2---2-2-2-2---2-2---2-2-2-2-|---------------------------------|
            
Hard to play? Try these video lessons and learn fast. | Correct




comments powered by Disqus
↑ Back to top | Tablatures and chords are parodies/interpretations of the original songs. You may use it for private study, scholarship, research or language learning purposes only