» » »

Give Me Novacaine Tabs (ver.8)

Artists:  A B C D E F G H I J K L M N O P Q R S T U V W X Y Z # 

Give Me Novacaine Tabs (ver.8)

Green Day
Rating:
0/5 (0 votes)

Hard to play? Try these video lessons and learn fast.
                -----------------------------------------------------------------
-----------------------------------------------------------------

Tuning: Standard
Acoustic Guitar 1: Capo on 4 (tab relative to capo)
Acoustic Guitar 2: No capo
Electric Guitar 1: No capo
Electric Guitar 2: No capo
Slide Guitar: No capo

There's two acoustic guitars playing simulaneously during the 
intro. The second one comes in when the singing kicks in (4th bar)

Verse

Acoustic Guitar 1 (Capo 4)
  (F)                            (Dm)
e|1-1-1-1-1-1-1-1-1-1-1-1-1-1-1-x-x-1-1-x-1-1-1-1-1-1-1-1-1-1-1-x|
B|1-1-1-1-1-1-1-1-1-1-1-1-1-1-1-x-x-3-3-x-3-3-3-3-3-3-3-3-3-3-3-x|
G|2-2-2-2-2-2-2-2-2-2-2-2-2-2-2-x-x-2-2-x-2-2-2-2-2-2-2-2-2-2-2-x|
D|3-3-3-3-3-3-3-3-3-3-3-3-3-3-3-x-x-0-0-0-0-0-0-0-0-0-0-0-0-0-0-x|
A|---------------------------------------------------------------|
E|---------------------------------------------------------------|

  (Gm)                           (C)
e|3-3-3-3-3-3-3-3-3-3-3-3-3-3-3-x-0-0-0-0-0-0-0-0-0-0-0-0-0-0-0-x|
B|3-3-3-3-3-3-3-3-3-3-3-3-3-3-3-x-1-1-1-1-1-1-1-1-1-1-1-1-1-1-1-x|
G|3-3-3-3-3-3-3-3-3-3-3-3-3-3-3-x-0-0-0-0-0-0-0-0-0-0-0-0-0-0-0-x|
D|5-5-5-5-5-5-5-5-5-5-5-5-5-5-5-x-2-2-2-2-2-2-2-2-2-2-2-2-2-2-2-x|
A|5-5-5-5-5-5-5-5-5-5-5-5-5-5-5-x-3-3-3-3-3-3-3-3-3-3-3-3-3-3-3-x|
E|3-3-3-3-3-3-3-3-3-3-3-3-3-3-3-x--------------------------------|

Acoustic Guitar 2
Take away the sensation inside...
  (A)                            (F#m)
e|--------------------------------2---x-2-2---x-2-2---x-2-2---2--|
B|2---x-2-2---x-2-2---x-2-2---2---2---x-2-2---x-2-2---x-2-2---2--|
G|2---x-2-2---x-2-2---x-2-2---2---2---x-2-2---x-2-2---x-2-2---2--|
D|2---x-2-2---x-2-2---x-2-2---2---4---x-4-4---x-4-4---x-4-4---4--|
A|0---x-0-0---x-0-0---x-0-0---0---4---x-4-4---x-4-4---x-4-4---4--|
E|--------------------------------2---x-2-2---x-2-2---x-2-2---2--|

  (Bm)                           (E)
e|2---x-2-2---x-2-2---x-2-2---2----------------------------------|
B|3---x-3-3---x-3-3---x-3-3---3---9---x-9-9---x-9-9---x-9-9---9--|
G|4---x-4-4---x-4-4---x-4-4---4---9---x-9-9---x-9-9---x-9-9---9--|
D|4---x-4-4---x-4-4---x-4-4---4---9---x-9-9---x-9-9---x-9-9---9--|
A|2---x-2-2---x-2-2---x-2-2---2---7---x-7-7---x-7-7---x-7-7---7--|
E|--------------------------------0---x-0-0---x-0-0---x-0-0---0--|

Chorus

Electric Guitar 1
Drain the pressure from the swelling...
  (D)                            (A)
e|---------------------------------------------------------------|
B|7-7-7-7-7------------------------------------------------------|
G|7-7-7-7-7-----------------------6-6-6-6-6-6-6-6-6-6-6-6-6-6-6-x|
D|7-7-7-7-7-----------------------7-7-7-7-7-7-7-7-7-7-7-7-7-7-7-x|
A|5-5-5-5-5-----------------------7-7-7-7-7-7-7-7-7-7-7-7-7-7-7-x|
E|--------------------------------5-5-5-5-5-5-5-5-5-5-5-5-5-5-5-x|

This sensations overwhelming...
  (D)                            (A)
e|---------------------------------------------------------------|
B|7-7-7-7-7------------------------------------------------------|
G|7-7-7-7-7-----------------------6-6-6-6-6-6-6-6-6-6-6-6-6-6-6-x|
D|7-7-7-7-7-----------------------7-7-7-7-7-7-7-7-7-7-7-7-7-7-7-x|
A|5-5-5-5-5-----------------------7-7-7-7-7-7-7-7-7-7-7-7-7-7-7-x|
E|--------------------------------5-5-5-5-5-5-5-5-5-5-5-5-5-5-5-x|

Give me a long kiss goodnight...
  (D)                            (F#5)
e|---------------------------------------------------------------|
B|7-7-7-7-7-7-7-7-7-7-7-7-7-7-7-7--------------------------------|
G|7-7-7-7-7-7-7-7-7-7-7-7-7-7-7-7--------------------------------|
D|7-7-7-7-7-7-7-7-7-7-7-7-7-7-7-7-4-4-4-4-4-4-4-4-4-4-4-4-4-4-4-x|
A|5-5-5-5-5-5-5-5-5-5-5-5-5-5-5-5-4-4-4-4-4-4-4-4-4-4-4-4-4-4-4-x|
E|--------------------------------2-2-2-2-2-2-2-2-2-2-2-2-2-2-2-x|

Tell me that I won't feel a thing               So give me nova...
  (B5)                           (E)
e|---------------------------------------------------------------|
B|--------------------------------9-9-9-9-9-9-9-9-9--------------|
G|--------------------------------9-9-9-9-9-9-9-9-9--------------|
D|9-9-9-9-9-9-9-9-9-9-9-9-9-9-9-9-9-9-9-9-9-9-9-9-9--------------|
A|9-9-9-9-9-9-9-9-9-9-9-9-9-9-9-9-7-7-7-7-7-7-7-7-7--------------|
E|7-7-7-7-7-7-7-7-7-7-7-7-7-7-7-7-0-0-0-0-0-0-0-0-0--------------|

Fill 1 (right after nova...)

Slide Guitar
e|-----------------------------------------------------|
B|5/14-----------------------------7/15------------12\9|
G|----------------14\11--------------------------------| Repeat
D|-----------------------------------------------------| twice
A|-----------------------------------------------------|
E|-----------------------------------------------------|

Chorus 2
Ends a bit differently

  (E)                                (A)
e|---------------------------------------------------------------|
B|9-9-9-9-9-9-9-9-9-9-9-9-x-x-x-x-x-x----------------------------|
G|9-9-9-9-9-9-9-9-9-9-9-9-x-x-x-x-x-x-6-6-6-6-6-6-6-6-6-6-6-6-6-6|
D|9-9-9-9-9-9-9-9-9-9-9-9-x-x-x-x-x-x-7-7-7-7-7-7-7-7-7-7-7-7-7-7|
A|7-7-7-7-7-7-7-7-7-7-7-7-x-x-x-x-x-x-7-7-7-7-7-7-7-7-7-7-7-7-7-7|
E|0-0-0-0-0-0-0-0-0-0-0-0-x-x-x-x-x-x-5-5-5-5-5-5-5-5-5-5-5-5-5-5|

  (A)                             (G5)
e|-----------------------------------|
B|-----------------------------------|
G|6-6-6-6-6-6-6-6-6-6-6-6-6-6-6-x-x--|
D|7-7-7-7-7-7-7-7-7-7-7-7-7-7-7-x-x--|
A|7-7-7-7-7-7-7-7-7-7-7-7-7-7-7-x-x-6|
E|5-5-5-5-5-5-5-5-5-5-5-5-5-5-5-x-x-4|

Bridge 
Electric Guitar 1
  (F#5)                          (A5)
e|---------------------------------------------------------------|
B|---------------------------------------------------------------|
G|---------------------------------------------------------------|
D|4-4-4-4-4-4-4-4-4-4-4-4-4-4-4-x-7-7-7-7-7-7-7-7-7-7-7-7-7-7-6-x|
A|4-4-4-4-4-4-4-4-4-4-4-4-4-4-4-x-7-7-7-7-7-7-7-7-7-7-7-7-7-7-6-x|
E|2-2-2-2-2-2-2-2-2-2-2-2-2-2-2-x-5-5-5-5-5-5-5-5-5-5-5-5-5-5-4-x|

  (F#5)                          (A5)
e|---------------------------------------------------------------|
B|---------------------------------------------------------------|
G|---------------------------------------------------------------|
D|4-4-4-4-4-4-4-4-4-4-4-4-4-4-4-x-7-7-7-7-7-7-7-7-7-7-7-7-7-7-6-x|
A|4-4-4-4-4-4-4-4-4-4-4-4-4-4-4-x-7-7-7-7-7-7-7-7-7-7-7-7-7-7-6-x|
E|2-2-2-2-2-2-2-2-2-2-2-2-2-2-2-x-5-5-5-5-5-5-5-5-5-5-5-5-5-5-4-x|

  (F#5)                          (B5)
e|---------------------------------------------------------------|
B|---------------------------------------------------------------|
G|---------------------------------------------------------------|
D|4-4-4-4-4-4-4-4-4-4-4-4-4-4-4-x-9-9-9-9-9-9-9-9-9-9-9-9-9-9-9-x|
A|4-4-4-4-4-4-4-4-4-4-4-4-4-4-4-x-9-9-9-9-9-9-9-9-9-9-9-9-9-9-9-x|
E|2-2-2-2-2-2-2-2-2-2-2-2-2-2-2-x-7-7-7-7-7-7-7-7-7-7-7-7-7-7-7-x|

  (E)
e|-------------------------------|
B|9-9-9-9-9-9-9-9-9-9-9-9-9-9-9-x|
G|9-9-9-9-9-9-9-9-9-9-9-9-9-9-9-x|
D|9-9-9-9-9-9-9-9-9-9-9-9-9-9-9-x|
A|7-7-7-7-7-7-7-7-7-7-7-7-7-7-7-x|
E|0-0-0-0-0-0-0-0-0-0-0-0-0-0-0-x|


Guitar Solo
Electric Guitar 2 (play it over the bridge)

Repeat part 1 and part 2 three times then play part 3 

Part 1
e|------------------------------------|
B|-----------9------9---10---10---9---|
G|---------------11-----------------11|
D|------------------------------------|
A|/9---11-11--------------------------|
E|------------------------------------|

Part 2
e|----------------------------------------|
B|--------------------14------------------|
G|------14----14-----------14-------------|
D|---------14------14-----------14--------|
A|/12--------------------------------12-12|
E|----------------------------------------|

Part 3
e|----------------------------------------|
B|-------------15------15-----------------|
G|-------16---------16------16-------16-16|
D|----16----16------------------16---16-16|
A|/14-------------------------------------|
E|----------------------------------------|

e|-----------------------------------|
B|-----------------------------------|
G|13-13-13-13-14-14-14-14-16-16-16-16|
D|14-14-14-14-14-14-14-14-14-14-14-14|
A|-----------------------------------|
E|-----------------------------------|

Fill 2
Electric guitar 2

Play over the first D chord of the chorus (right after the solo)
e|--------------|
B|--------------|
G|11-11-11-12-11|
D|12-12-12-12-12|
A|--------------|
E|--------------|

Outro
Just play the verse riff once then end on an A chord

Verse
Chorus
Verse (fill)
Chorus
Bridge (solo)
Chorus 
Outro

| /  slide up
| \  slide down
| x  Mute note
            
Hard to play? Try these video lessons and learn fast. | Correct




comments powered by Disqus
↑ Back to top | Tablatures and chords are parodies/interpretations of the original songs. You may use it for private study, scholarship, research or language learning purposes only