» » »

Green Day, Give Me Novacaine Tabs (ver.2)

Artists:  A B C D E F G H I J K L M N O P Q R S T U V W X Y Z # 

Give Me Novacaine Tabs (ver.2)

Green Day Tabs
Rating:
0/5 (0 votes)
Give Me Novacaine lessons Tabs too difficult? Try these video lessons and learn fast
                alright.i find it pretty sad the attempts i have seen for tabbing this song.
the solo on all of them is totally off.Everything is wrong its pathetic. i have to 
things out.

this song is in standard tuning. you need a total of four guitars to play it. Or three 
you have an acoustic simulater pedal and a distortion pedal.

--------------------------------Intro/Verse--------------------------------

guitar one:
this is the little riff you hear scattered in the song. It is the only thing guitar one 
Guitar 1 is an Acoustic Guitar capoed to the 4th fret (no other guitar is capoed. just 
one).

   played with an up, down strumming motion very fast
E|-1111111111111111111111111111111133333333333333330000000000000000
B|-1111111111111111333333333333333333333333333333331111111111111111
G|-2222222222222222222222222222222233333333333333330000000000000000
D|-3333333333333333000000000000000055555555555555552222222222222222
A|---------------------------------55555555555555553333333333333333-|
E|---------------------------------3333333333333333-----------------|


Guitar Two:

if you have an acoustic simulater and a distortion pedal then this is guitar 2 and 3. 
now its acoustic.

E|--------------2-22-22-22-2-2-22-22-22-2--------------|
B|-2-22-22-22-2-2-22-22-22-2-3-33-33-33-3-9-99-99-99-9-|
G|-2-22-22-22-2-2-22-22-22-2-4-44-44-44-4-9-99-99-99-9-|
D|-2-22-22-22-2-4-44-44-44-4-4-44-44-44-4-9-99-99-99-9-|
A|-0-00-00-00-0-4-44-44-44-4-2-22-22-22-2-7-77-77-77-7-|
E|--------------2-22-22-22-2--------------0-00-00-00-0-|

-----------------------------------Chorus-----------------------------------

this is where gutiar three (or guitar 2 and 3) comes in with the Dist.

E|-2222---------------------2222---------------------2222222222222222-|
B|-3333----2222222222222222-3333----2222222222222222-3333333333333333-|
G|-2222----2222222222222222-2222----2222222222222222-2222222222222222-|
D|-0000----2222222222222222-0000----2222222222222222-0000000000000000-|
A|---------0000000000000000---------0000000000000000------------------|
E|--------------------------------------------------------------------|

E|-----------------------------------------|
B|-------------------------------999999999-|
G|-------------------------------999999999-|
D|-44444444444444-99999999999999-999999999-|
A|-44444444444444-99999999999999-777777777-|
E|-22222222222222-77777777777777-000000000-|

then the Second verse comes in which is the same as the first. however the second chorus 
a little different.

-------------------------------2nd Chorus/Solo------------------------------


im just gonna cut the cr*p and go right to the tabs this time.

guitar 2 (or 2 and 3)
E|-2222---------------------2222---------------------2222222222222222-|
B|-3333----2222222222222222-3333----2222222222222222-3333333333333333-|
G|-2222----2222222222222222-2222----2222222222222222-2222222222222222-|
D|-0000----2222222222222222-0000----2222222222222222-0000000000000000-|
A|---------0000000000000000---------0000000000000000------------------|
E|--------------------------------------------------------------------|

E|-------------------------------0000000000000000---------------------------|
B|-------------------------------0000000000000000-2-------------------------|
G|----------------44444444444444-1111111111111111-2-repeat chord 22x--------|
D|-44444444444444-44444444444444-2222222222222222-2-------------------------|
A|-44444444444444-22222222222222-2222222222222222-0------------------66-----|
E|-22222222222222----------------0000000000000000--------------------44-----|

 this is played behind the solo

E|-------------------------------------------------------------------------|
B|-------------------------------------------------------------------------|
G|------------------22222222222222----------------------22222222222222-----|
D|-4444444444444444-22222222222222-----4444444444444444-22222222222222-----|
A|-4444444444444444-00000000000000-66--4444444444444444-00000000000000-66--|
E|-2222222222222222----------------44--2222222222222222----------------44--|

E|----------------------------------------------------------------------|
B|----------------------------------------------------9999999999999999--|
G|------------------2222222222222222------------------9999999999999999--|
D|-4444444444444444-2222222222222222-9999999999999999-9999999999999999--|
A|-4444444444444444-0000000000000000-9999999999999999-7777777777777777--|
E|-2222222222222222------------------7777777777777777-0000000000000000--|

guitar 4 (solo guitar)

this is the correct solo i am 100% sure

   F#sus          F#min F#sus Amaj(high octave)      Bmin(high octave)
E|------------------------------------------------------------------------|
B|---------9--9-10-10-9--------------14-----------------------15--15------|
G|----------11---------11---14--14~----14-----------------16----16--16----|
D|--11-11---------------------14---14----14-------3x----16--16--------16--|
A|-9----------------------12---------------12-12------14------------------|
E|------------------------------------------------------------------------|

   Bmin   Emaj                                    Dmaj(played during chorus)
E|---------------------------------------------------------------|
B|--------9-9-9-9-10-10-10-10-12-12-12-12-12-12-12-12--7-7-8-8-7-|
G|-16-16--9-9-9-9-9--9--9--9--9--9--9--9--9--9--9--9---7-7-7-7-7-|
D|-16-16---------------------------------------------------------|
A|---------------------------------------------------------------|
E|---------------------------------------------------------------|


then the chorus plays a third time. and after the chorus the intro plays as an outro.
            

comments powered by Disqus
↑ Back to top | Green Day Tabs for Give Me Novacaine. Lyrics for acoustic guitar and electric guitar. Tablatures and chords are parodies/interpretations of the original songs. You may use it for private study, scholarship, research or language learning purposes only