>
 >
Give Me Novacaine 3

Give Me Novacaine 3 Guitar Tabs

Green Day - Give Me Novacaine 3 chords, tabs, tablatures, lyrics

Guitar lessons | Add/correct | Request | Top 50 tabs Artists:  A B C D E F G H I J K L M N O P Q R S T U V W X Y Z 0-9

Give Me Novacaine 3 Guitar Tabs – Green Day

CD, Sheet music, Poster

Do you like Give Me Novacaine 3? Share with your friends now
Bass TabsBass Tabs v2Bass Tabs v3Bass Tabs v4Bass Tabs v5ChordsChords v2Drum TabsTabsTabs v2Tabs v3Tabs v4Tabs v5Tabs v6Tabs v7Tabs v8Tabs v9
enjoy
 
    


Intro

e|---------------------------------------------------------------------------|
B|--5-5-5-5-5-5-5-5-5-5-5-5-5-5-5-5-10-10-10-10-10-10-10-10-10-10-10-10-10---|
G|--6-6-6-6-6-6-6-6-6-6-6-6-6-6-6-6-11-11-11-11-11-11-11-11-11-11-11-11-11---|
D|--7-7-7-7-7-7-7-7-7-7-7-7-7-7-7-7-11-11-11-11-11-11-11-11-11-11-11-11-11---|
A|--7-7-7-7-7-7-7-7-7-7-7-7-7-7-7-7--9--9--9--9--9--9--9--9--9--9--9--9--9---|
E|---------------------------------------------------------------------------|


e|---------------------------------------------------------------------------|
B|--10-10-10-3-3-3-3-3-3-3-3-3-3-3-3-3-3-3-3-9-9-9-9-9-9-9-9-9-9-9-9-9-9-9-9-|
G|--11-11-11-4-4-4-4-4-4-4-4-4-4-4-4-4-4-4-4-9-9-9-9-9-9-9-9-9-9-9-9-9-9-9-9-|
D|--11-11-11-4-4-4-4-4-4-4-4-4-4-4-4-4-4-4-4-9-9-9-9-9-9-9-9-9-9-9-9-9-9-9-9-|
A|---9--9--9-2-2-2-2-2-2-2-2-2-2-2-2-2-2-2-2-7-7-7-7-7-7-7-7-7-7-7-7-7-7-7-7-|
E|---------------------------------------------------------------------------|





Verse 1  x2

e|---------------------------------------------------------------------------|
B|--5-5-5-5-5-5-5-5-5-5-5-5-5-5-5-5-10-10-10-10-10-10-10-10-10-10-10-10-10---|
G|--6-6-6-6-6-6-6-6-6-6-6-6-6-6-6-6-11-11-11-11-11-11-11-11-11-11-11-11-11---|
D|--7-7-7-7-7-7-7-7-7-7-7-7-7-7-7-7-11-11-11-11-11-11-11-11-11-11-11-11-11---|
A|--7-7-7-7-7-7-7-7-7-7-7-7-7-7-7-7--9--9--9--9--9--9--9--9--9--9--9--9--9---|
E|---------------------------------------------------------------------------|


e|---------------------------------------------------------------------------|
B|--10-10-10-3-3-3-3-3-3-3-3-3-3-3-3-3-3-3-3-9-9-9-9-9-9-9-9-9-9-9-9-9-9-9-9-|
G|--11-11-11-4-4-4-4-4-4-4-4-4-4-4-4-4-4-4-4-9-9-9-9-9-9-9-9-9-9-9-9-9-9-9-9-|
D|--11-11-11-4-4-4-4-4-4-4-4-4-4-4-4-4-4-4-4-9-9-9-9-9-9-9-9-9-9-9-9-9-9-9-9-|
A|---9--9--9-2-2-2-2-2-2-2-2-2-2-2-2-2-2-2-2-7-7-7-7-7-7-7-7-7-7-7-7-7-7-7-7-|
E|---------------------------------------------------------------------------|





Chorus

e|---------------------------------------------------------------------------|
B|---------------------------------------------------------------------------|
G|--7-7-7-7-7----------------------------------------------------------------|
D|--7-7-7-7-7----------7-7-7-7-7-7-7-7-7-7-7-7-7-7-7-7---------(x2)----------|
A|--5-5-5-5-5----------7-7-7-7-7-7-7-7-7-7-7-7-7-7-7-7-----------------------|
E|---------------------5-5-5-5-5-5-5-5-5-5-5-5-5-5-5-5-----------------------|


e|---------------------------------------------------------------------------|
B|---------------------------------------------------------------------------|
G|--7-7-7-7-7-7-7-7-7-7-7-7-7-7-7-7------------------------------------------|
D|--7-7-7-7-7-7-7-7-7-7-7-7-7-7-7-7-4-4-4-4-4-4-4-4-4-4-4-4-4-4-4-4----------|
A|--5-5-5-5-5-5-5-5-5-5-5-5-5-5-5-5-4-4-4-4-4-4-4-4-4-4-4-4-4-4-4-4----------|
E|----------------------------------2-2-2-2-2-2-2-2-2-2-2-2-2-2-2-2----------|


e|---------------------------------------------------------------------------|
B|---------------------------------------------------------------------------|
G|--4-4-4-4-4-4-4-4-4-4-4-4-4-4-4-4-9-9-9-9-9-9-9-9-9------------------------|
D|--4-4-4-4-4-4-4-4-4-4-4-4-4-4-4-4-9-9-9-9-9-9-9-9-9------------------------|
A|--2-2-2-2-2-2-2-2-2-2-2-2-2-2-2-2-7-7-7-7-7-7-7-7-7------------------------|
E|---------------------------------------------------------------------------|





Interlude


(Gtr 1)

e|---------------------------------------------------------------------------|
B|--5-5-5-5-5-5-5-5-5-5-5-5-5-5-5-5-10-10-10-10-10-10-10-10-10-10-10-10-10---|
G|--6-6-6-6-6-6-6-6-6-6-6-6-6-6-6-6-11-11-11-11-11-11-11-11-11-11-11-11-11---|
D|--7-7-7-7-7-7-7-7-7-7-7-7-7-7-7-7-11-11-11-11-11-11-11-11-11-11-11-11-11---|
A|--7-7-7-7-7-7-7-7-7-7-7-7-7-7-7-7--9--9--9--9--9--9--9--9--9--9--9--9--9---|
E|---------------------------------------------------------------------------|


e|---------------------------------------------------------------------------|
B|--10-10-10-3-3-3-3-3-3-3-3-3-3-3-3-3-3-3-3-9-9-9-9-9-9-9-9-9-9-9-9-9-9-9-9-|
G|--11-11-11-4-4-4-4-4-4-4-4-4-4-4-4-4-4-4-4-9-9-9-9-9-9-9-9-9-9-9-9-9-9-9-9-|
D|--11-11-11-4-4-4-4-4-4-4-4-4-4-4-4-4-4-4-4-9-9-9-9-9-9-9-9-9-9-9-9-9-9-9-9-|
A|---9--9--9-2-2-2-2-2-2-2-2-2-2-2-2-2-2-2-2-7-7-7-7-7-7-7-7-7-7-7-7-7-7-7-7-|
E|---------------------------------------------------------------------------|


(Gtr 2)

e|---------------------------------------------------------------------------|
B|--5/14--------------10\7--------------7/15--------------12\9---------------|
G|---------------------------------------------------------------------------|
D|---------------------------------------------------------------------------|
A|---------------------------------------------------------------------------|
E|---------------------------------------------------------------------------|





Verse 2


(Gtr 1)  x2

e|---------------------------------------------------------------------------|
B|--5-5-5-5-5-5-5-5-5-5-5-5-5-5-5-5-10-10-10-10-10-10-10-10-10-10-10-10-10---|
G|--6-6-6-6-6-6-6-6-6-6-6-6-6-6-6-6-11-11-11-11-11-11-11-11-11-11-11-11-11---|
D|--7-7-7-7-7-7-7-7-7-7-7-7-7-7-7-7-11-11-11-11-11-11-11-11-11-11-11-11-11---|
A|--7-7-7-7-7-7-7-7-7-7-7-7-7-7-7-7--9--9--9--9--9--9--9--9--9--9--9--9--9---|
E|---------------------------------------------------------------------------|


e|---------------------------------------------------------------------------|
B|--10-10-10-3-3-3-3-3-3-3-3-3-3-3-3-3-3-3-3-9-9-9-9-9-9-9-9-9-9-9-9-9-9-9-9-|
G|--11-11-11-4-4-4-4-4-4-4-4-4-4-4-4-4-4-4-4-9-9-9-9-9-9-9-9-9-9-9-9-9-9-9-9-|
D|--11-11-11-4-4-4-4-4-4-4-4-4-4-4-4-4-4-4-4-9-9-9-9-9-9-9-9-9-9-9-9-9-9-9-9-|
A|---9--9--9-2-2-2-2-2-2-2-2-2-2-2-2-2-2-2-2-7-7-7-7-7-7-7-7-7-7-7-7-7-7-7-7-|
E|---------------------------------------------------------------------------|


(Gtr 2)  x2

e|---------------------------------------------------------------------------|
B|--5/14--------------10\7--------------7/15--------------12\9---------------|
G|---------------------------------------------------------------------------|
D|---------------------------------------------------------------------------|
A|---------------------------------------------------------------------------|
E|---------------------------------------------------------------------------|





Chorus

e|---------------------------------------------------------------------------|
B|---------------------------------------------------------------------------|
G|--7-7-7-7-7----------------------------------------------------------------|
D|--7-7-7-7-7----------7-7-7-7-7-7-7-7-7-7-7-7-7-7-7-7---------(x2)----------|
A|--5-5-5-5-5----------7-7-7-7-7-7-7-7-7-7-7-7-7-7-7-7-----------------------|
E|---------------------5-5-5-5-5-5-5-5-5-5-5-5-5-5-5-5-----------------------|


e|---------------------------------------------------------------------------|
B|---------------------------------------------------------------------------|
G|--7-7-7-7-7-7-7-7-7-7-7-7-7-7-7-7------------------------------------------|
D|--7-7-7-7-7-7-7-7-7-7-7-7-7-7-7-7-4-4-4-4-4-4-4-4-4-4-4-4-4-4-4-4----------|
A|--5-5-5-5-5-5-5-5-5-5-5-5-5-5-5-5-4-4-4-4-4-4-4-4-4-4-4-4-4-4-4-4----------|
E|----------------------------------2-2-2-2-2-2-2-2-2-2-2-2-2-2-2-2----------|


                                                   Harm . . . . .
e|---------------------------------------------------------------------------|
B|---------------------------------------------------------------------------|
G|--4-4-4-4-4-4-4-4-4-4-4-4-4-4-4-4-9-9-9-9-9-9-9-9-9-9-9-9-9-9-9------------|
D|--4-4-4-4-4-4-4-4-4-4-4-4-4-4-4-4-9-9-9-9-9-9-9-9-9-9-9-9-9-9-9--7-----6-6-|
A|--2-2-2-2-2-2-2-2-2-2-2-2-2-2-2-2-7-7-7-7-7-7-7-7-7-7-7-7-7-7-7--7-x30-6-6-|
E|-----------------------------------------------------------------5-----4-4-|





Solo


(Gtr 1)

e|---------------------------------------------------------------------------|
B|---------------------------------------------------------------------------|
G|---------------------------------------------------------------------------|
D|--4-4-4-4-4-4-4-4-4-4-4-4-4-4-4-4-7-7-7-7-7-7-7-7-7-7-7-7-7-7-6-6----(x2)--|
A|--4-4-4-4-4-4-4-4-4-4-4-4-4-4-4-4-7-7-7-7-7-7-7-7-7-7-7-7-7-7-6-6----------|
E|--2-2-2-2-2-2-2-2-2-2-2-2-2-2-2-2-5-5-5-5-5-5-5-5-5-5-5-5-5-5-4-4----------|


e|---------------------------------------------------------------------------|
B|---------------------------------------------------------------------------|
G|---------------------------------------------------------------------------|
D|--4-4-4-4-4-4-4-4-4-4-4-4-4-4-4-4-7-7-7-7-7-7-7-7-7-7-7-7-7-7-7-7----------|
A|--4-4-4-4-4-4-4-4-4-4-4-4-4-4-4-4-7-7-7-7-7-7-7-7-7-7-7-7-7-7-7-7----------|
E|--2-2-2-2-2-2-2-2-2-2-2-2-2-2-2-2-5-5-5-5-5-5-5-5-5-5-5-5-5-5-5-5----------|


e|---------------------------------------------------------------------------|
B|---------------------------------------------------------------------------|
G|----------------------------------9-9-9-9-9-9-9-9-9-9-9-9-9-9-9------------|
D|--9-9-9-9-9-9-9-9-9-9-9-9-9-9-9-9-9-9-9-9-9-9-9-9-9-9-9-9-9-9-9------------|
A|--9-9-9-9-9-9-9-9-9-9-9-9-9-9-9-9-7-7-7-7-7-7-7-7-7-7-7-7-7-7-7------------|
E|--7-7-7-7-7-7-7-7-7-7-7-7-7-7-7-7------------------------------------------|


(Gtr 2)

e|-----------------------------------------------9---------------------------|
B|-----------9-----9--10--10--9-------10---10-------10-----------------------|
G|--------------11--------------11-------9-----9--------9--------------------|
D|-----11-11------------------------7----------------------------------------|
A|--/9-----------------------------------------------------------------------|
E|---------------------------------------------------------------------------|


e|-------------------------------------------------9-------------------------|
B|-------------9-----9--10--10--9-------10---10-------10---------------------|
G|----------------11--------------11-------9-----9--------9------------------|
D|-------11-11------------------------7--------------------------(x2)--------|
A|--12\9---------------------------------------------------------------------|
E|---------------------------------------------------------------------------|



e|------------10-----10------------------------------------------------------|
B|------12--------12-----12--12--12-12--9-9-9-9-10-10-10-10-12-12-12-12-12---|
G|---------11----------------11--11-11--9-9-9-9--9--9--9--9--9--9--9--9--9---|
D|--7/9----------------------------------------------------------------------|
A|---------------------------------------------------------------------------|
E|---------------------------------------------------------------------------|


e|---------------------------------------------------------------------------|
B|--12-12--------------------------------------------------------------------|
G|---9--9--------------------------------------------------------------------|
D|---------------------------------------------------------------------------|
A|---------------------------------------------------------------------------|
E|---------------------------------------------------------------------------|





Chorus


e|---------------------------------------------------------------------------|
B|---------------------------------------------------------------------------|
G|--7-7-7-7-7----------------------------------------------------------------|
D|--7-7-7-7-7----------7-7-7-7-7-7-7-7-7-7-7-7-7-7-7-7---------(x2)----------|
A|--5-5-5-5-5----------7-7-7-7-7-7-7-7-7-7-7-7-7-7-7-7-----------------------|
E|---------------------5-5-5-5-5-5-5-5-5-5-5-5-5-5-5-5-----------------------|


e|---------------------------------------------------------------------------|
B|---------------------------------------------------------------------------|
G|--7-7-7-7-7-7-7-7-7-7-7-7-7-7-7-7------------------------------------------|
D|--7-7-7-7-7-7-7-7-7-7-7-7-7-7-7-7-4-4-4-4-4-4-4-4-4-4-4-4-4-4-4-4----------|
A|--5-5-5-5-5-5-5-5-5-5-5-5-5-5-5-5-4-4-4-4-4-4-4-4-4-4-4-4-4-4-4-4----------|
E|----------------------------------2-2-2-2-2-2-2-2-2-2-2-2-2-2-2-2----------|


e|---------------------------------------------------------------------------|
B|---------------------------------------------------------------------------|
G|--4-4-4-4-4-4-4-4-4-4-4-4-4-4-4-4-9-9-9-9-9-9-9-9-9------------------------|
D|--4-4-4-4-4-4-4-4-4-4-4-4-4-4-4-4-9-9-9-9-9-9-9-9-9------------------------|
A|--2-2-2-2-2-2-2-2-2-2-2-2-2-2-2-2-7-7-7-7-7-7-7-7-7------------------------|
E|---------------------------------------------------------------------------|





Outro


(Gtr 1)

e|---------------------------------------------------------------------------|
B|--5-5-5-5-5-5-5-5-5-5-5-5-5-5-5-5-10-10-10-10-10-10-10-10-10-10-10-10-10---|
G|--6-6-6-6-6-6-6-6-6-6-6-6-6-6-6-6-11-11-11-11-11-11-11-11-11-11-11-11-11---|
D|--7-7-7-7-7-7-7-7-7-7-7-7-7-7-7-7-11-11-11-11-11-11-11-11-11-11-11-11-11---|
A|--7-7-7-7-7-7-7-7-7-7-7-7-7-7-7-7--9--9--9--9--9--9--9--9--9--9--9--9--9---|
E|---------------------------------------------------------------------------|


e|---------------------------------------------------------------------------|
B|--10-10-10-3-3-3-3-3-3-3-3-3-3-3-3-3-3-3-3-9-9-9-9-9-9-9-9-9-9-9-9-9-9-9-9-|
G|--11-11-11-4-4-4-4-4-4-4-4-4-4-4-4-4-4-4-4-9-9-9-9-9-9-9-9-9-9-9-9-9-9-9-9-|
D|--11-11-11-4-4-4-4-4-4-4-4-4-4-4-4-4-4-4-4-9-9-9-9-9-9-9-9-9-9-9-9-9-9-9-9-|
A|---9--9--9-2-2-2-2-2-2-2-2-2-2-2-2-2-2-2-2-7-7-7-7-7-7-7-7-7-7-7-7-7-7-7-7-|
E|---------------------------------------------------------------------------|


(Gtr 2)

e|---------------------------------------------------------------------------|
B|--14--------10----10-----------7-7---------15----15---------9--------------|
G|---------------------------------------------------------------------------|
D|---------------------------------------------------------------------7-----|
A|---------------------------------------------------------------------------|
E|---------------------------------------------------------------------------|





Comments


Popular Green Day tabs & chords
Are We The Waiting 2 Bass Tabs
21st Century Breakdown Chords
At The Library 1 Chords
Fashion Victim 1 Chords
The Ballad Of Wilhelm Fink Chords
Christie Road Drum Tabs
Burnout Tabs
Green Day  2 Tabs
One Of My Lies  1 Tabs
Reject Tabs


Song lyrics



↑ Back to top | Tablatures and chords are parodies/interpretations of the original songs. You may use it for private study, scholarship, research or language learning purposes only
© 2014 AZChords.com Contact us | Privacy policy | DMCA | Add/correct tabs | Request tabs | Top 50 tabs