» » »

Eye Of The Tiger Tabs (ver.4)

Artists:  A B C D E F G H I J K L M N O P Q R S T U V W X Y Z # 

Eye Of The Tiger Tabs (ver.4)

Green Day
Rating:
0/5 (0 votes)

Hard to play? Try these video lessons and learn fast.
                (Intro)


This was played live by Greenday. It is a little different from the song

------------------|--------------------------------------|--------------------
------------------|--------------------------------------|--------------------
--5---------------|-5------5-3-5------5-3-5------5-3-----|--------------------
--5---------------|-5------5-3-5------5-3-5------5-3--6--|--------------------
--333333333333333-|-33333333-1-33333333-1-33333333-1--6--|--------------------
------------------|-----------------------------------4--|--------------------
  Intro-wait                                                                  

------------------------------------------------------------------------------
------------------------------------------------------------------------------
-5-5-3-5-5-3-5-5-3------------------------------------------------------------
-5-5-3-5-5-3-5-5-3-6----------------------------------------------------------
-3-3-1-3-3-1-3-3-1-6----------------------------------------------------------
-------------------4----------------------------------------------------------
                                                                              
            
Hard to play? Try these video lessons and learn fast. | Correct




comments powered by Disqus
↑ Back to top | Tablatures and chords are parodies/interpretations of the original songs. You may use it for private study, scholarship, research or language learning purposes only