» » »

Eye Of The Tiger Tabs (ver.2)

Artists:  A B C D E F G H I J K L M N O P Q R S T U V W X Y Z # 

Eye Of The Tiger Tabs (ver.2)

Green Day
Rating:
0/5 (0 votes)
Tabs too difficult? Try these video lessons and learn fast.
                E---------------------------------------------------------------------|
B---------------------------------------------------------------------|
G--5---5---3---5---------5---3---5---------5---3----------------------| x2
D--5---5---3---5---------5---3---5---------5---3---6------------------|
A--3---3---1---3---------3---1---3---------3---1---6------------------|
E--------------------------------------------------4------------------|

E---------------------------------------------------------------------|
B---------------------------------------------------------------------|
G--5---555555---5---3---5---555555---5---3---5---555555---5---3---6---|
D--5---555555---5---3---5---555555---5---3---5---555555---5---3---6---|
A--3---333333---3---1---3---333333---3---1---3---333333---3---1---4---|
E---------------------------------------------------------------------|
     |  pm  |              |  pm  |             |  pm  |              

                 -=play as many times as you want=-
            
Tabs too difficult? Try these video lessons and learn fast.


comments powered by Disqus
↑ Back to top | Tablatures and chords are parodies/interpretations of the original songs. You may use it for private study, scholarship, research or language learning purposes only