» » »

Don't Wanna Fall In Love Tabs (ver.1)

Artists:  A B C D E F G H I J K L M N O P Q R S T U V W X Y Z # 

Don't Wanna Fall In Love Tabs (ver.1)

Green Day
Rating:
0/5 (0 votes)

Tabs too difficult? Try these video lessons and learn fast.
                
verse: play as many times as needed ( this is the E chord)
-------------------
-------------------
-------1------------
-------2-------------
-------2-------------
--------------------


Chorus
(then switch to the A chord to the E chord again)
-------------------------------------
--------2---------------------------
--------2------------1-----------------
--------2------------2--------------------
---------------------2---------------------
-----------------------------------------

verse: play as many times as needed ( this is the E chord)
-------------------
-------------------
-------1------------
-------2-------------
-------2-------------
--------------------


fade out
            
Tabs too difficult? Try these video lessons and learn fast.




comments powered by Disqus
↑ Back to top | Tablatures and chords are parodies/interpretations of the original songs. You may use it for private study, scholarship, research or language learning purposes only