» » »

Green Day, Dominated Love Slave Tabs (ver.3)

Artists:  A B C D E F G H I J K L M N O P Q R S T U V W X Y Z # 

Dominated Love Slave Tabs (ver.3)

Green Day Tabs
 Rating:
4/5 (4 votes)
Dominated Love Slave lessons Tabs too difficult? Try these video lessons and learn fast
1
                Notes: The best song on the album (even better than 2000 Lightyears Away). Tré sings it, and plays guitar.


   E               A              E                   B
e--0---------------x--------------0-------------------X----------------
B--8---------------0--------------8-------------------0----------------
G--9---------------6--------------9-------------------8----------------
D--9---------------7--------------9-------------------9----------------
A--7---------------7--------------7-------------------9---------------
E--X---------------5--------------X-------------------7----------------

   I wanna...  ...Love Slave   I wanna.... takes the pain
   I want you... ..call me      Put a ...          My skin
   E               A              E        
e--0---------------x--------------0---------X-----------0----
B--8---------------0--------------8---------0-----------8----
G--9---------------6--------------9---------8-----------9----
D--9---------------7--------------9---------9-----------9----
A--7---------------7--------------7---------9-----------7----
E--X---------------5--------------X---------7-----------X----
   
   You can...    ...Behave       Smack... forehead....chain
   I want to feel..my body       cant...   punished....sins

Chorus
   A          E           B          E
e--x----------0-----------x----------0----------------
B--0----------8-----------0----------8----------------
G--6----------9-----------8----------9----------------
D--7----------9-----------9----------9----------------
A--7----------7-----------9----------7---------------
E--5----------X-----------7----------X---------------

  I Love Feelin Dirty And I love feelin cheep
  I love it when you...So drive them staples deep.

For the solo, I suggest you make something up. I admit, Tré is better it than I am.
            
Submit corrections

comments powered by Disqus
↑ Back to top | Green Day Tabs for Dominated Love Slave. Lyrics for acoustic guitar and electric guitar. 1 Tablatures and chords are parodies/interpretations of the original songs. You may use it for private study, scholarship, research or language learning purposes only