» » »

Desensitized Tabs (ver.2)

Artists:  A B C D E F G H I J K L M N O P Q R S T U V W X Y Z # 

Desensitized Tabs (ver.2)

Green Day
Rating:
0/5 (0 votes)

Hard to play? Try these video lessons and learn fast.
                D E S E N S I T I Z E D
                                  G R E E N  D A Y

VERSE

Play only on 3rd last rep of ending)
   
    G5          C5       G5					   
e|----------------------------------------------------------------------------------|
B|----------------------------------------------------------------------------------|
G|----------------------------------------------------------------------------------|
D|--------------5--5--5-------------------------------------------------------------|
A|--5--5--5--5--3--3--3--5----------------------------------------------------------|
E|--3--3--3--3-----------3----------------------------------------------------------|


CHORUS
 
    E5			             G5	                                   (X2)
e|----------------------------------------------------------------------------------|
B|----------------------------------------------------------------------------------|
G|--------------------------------------4--4--4--4--4--4--4--4--4--4--4--4----------|
D|--2--2--2--2--2--2--2--2--2--2--2--2--5--5--5--5--5--5--5--5--5--5--5--5----------|
A|--2--2--2--2--2--2--2--2--2--2--2--2--5--5--5--5--5--5--5--5--5--5--5--5----------|
E|--0--0--0--0--0--0--0--0--0--0--0--0--3--3--3--3--3--3--3--3--3--3--3--3----------|

  
    A5                F5	                                                     (X2)
e|----------------------------------------------------------------------------------|
B|----------------------------------------------------------------------------------|
G|--------------------2--2--2--2--2--2----------------------------------------------|
D|--7--7--7--7--7--7--3--3--3--3--3--3----------------------------------------------|
A|--7--7--7--7--7--7--3--3--3--3--3--3----------------------------------------------|
E|--5--5--5--5--5--5--1--1--1--1--1--1----------------------------------------------|

    C5		    G5                F5
e|----------------------------------------------------------------------------------|
B|----------------------------------------------------------------------------------|
G|--5--5--5--5--5--5--4--4--4--4--4--4--2--2--2--2--2--2----------------------------|
D|--5--5--5--5--5--5--5--5--5--5--5--5--3--3--3--3--3--3----------------------------|
A|--3--3--3--3--3--3--5--5--5--5--5--5--3--3--3--3--3--3----------------------------|
E|--------------------3--3--3--3--3--3--1--1--1--1--1--1----------------------------|

STRUMMING
Verse = down down up down down down down down (For whole Riff)
Chorus = down down up up down up (For Each Chord)

LYRICS
Clenching my teeth tight
My head is like a sponge		       (Verse 1)
Give it to me free

I wanna get ripped off
And drown in the airwaves
Another fatal wreck			      (Chorus)
On the information highway
So go ahead and kill yourselves
It all amuses me
But I'll be damned to spend my life in hell
Another wise ingrate

Bring me blood and pain
Give it all away

I'm desensitized
I wanna watch the bomb			      (Verse 3)
Blow the masses high

(Chorus)
(Verse 2)
(Chorus)


ORDER (For the verse play verse riff 3 times)

Intro (Verse riff x3 with pauses between reps)
Verse 1
Chorus
Verse 2
Verse 3 (Guitar 2 PMs G5)
Chorus
Verse 2 (Strum G5 between riff reps)
Chorus
End (verse riff x4)
            
Hard to play? Try these video lessons and learn fast. | Correct




comments powered by Disqus
↑ Back to top | Tablatures and chords are parodies/interpretations of the original songs. You may use it for private study, scholarship, research or language learning purposes only