» » »

Green Day, Chump Tabs (ver.4)

Artists:  A B C D E F G H I J K L M N O P Q R S T U V W X Y Z # 

Chump Tabs (ver.4)

Green Day Tabs
Rating:
0/5 (0 votes)
Hard to play? Try these video lessons and learn fast.
                (Live)
Chump live @ Woodstock 94
Green Day
Tuning: 1 half step down

I love this song!! Note that the tempo of this song is much more faster than the album 
especially w/ the bass solo. Billie uses his Strat on this song.

Intro:
eb|-----------------------------------| Note-I'm not going to tab when you hear
Bb|-----------------------------------| the higher strings being in on the Em
Gb|--4--4--4--------------------------| chord becaues its never consistant w/
Db|--4--4--4-44--2--2-2-2--2-2-2------| him playing, its just randomly played
Ab|--2--2--2-44--2--2-2-2--2-2-2------|
Eb|----------22--0--0-0-0--0-0-0------| x2

VERSE: x2
eb|-------------------------------------------------------------|
Bb|-------------------------------------------------------------|
Gb|--4--4--4-4-4------------------4--4--4-4-4-------------------|
Db|--4--4--4-4-4-2--2-2-2--2-2-2--4--4--4-4-4-2--2-2-2--2-2-2---|
Ab|--2--2--2-2-2-2--2-2-2--2-2-2--2--2--2-2-2-2--2-2-2--2-2-2---|
Eb|--------------0--0-0-0--0-0-0--------------0--0-0-0--0-0-0---|

eb|-------------------------------------------------------------|
Bb|-------------------------------------------------------------|
Gb|--4--4--4-4-4------------------------------------------------|
Db|--4--4--4-4-4-2--2-2-2--2-2-2--4--4--4-4-4-4--4-4--4-4-4-4---|
Ab|--2--2--2-2-2-2--2-2-2--2-2-2--4--4--4-4-4-4--4-4--4-4-4-4---|
Eb|--------------0--0-0-0--0-0-0--2--2--2-2-2-2--2-2--2-2-2-2---|


CHORUS:
eb|--------------------------------|
Bb|--------------------------------|
Gb|--2--2--------4--4-4-4--4-4-4---|
Db|--2--2--22----4--4-4-4--4-4-4---|x3
Ab|--0--0--22----2--2-2-2--2-2-2---|
Eb|--------00----------------------|


eb|----------------------------------|
Bb|----------------------------------|
Gb|--2--2-2-2-2-2-2------------------|
Db|--2--2-2-2-2-2-2-2--2-2-2-2-2-2---|
Ab|--0--0-0-0-0-0-0-2--2-2-2-2-2-2---|
Eb|-----------------0--0-0-0-0-0-0---|

Intro:
eb|--------------------------------|
Bb|--------------------------------|
Gb|--4--4--4-----------------------|
Db|--4--4--4-44--2--2-2-2--2-2-2---|
Ab|--2--2--2-44--2--2-2-2--2-2-2---|
Eb|----------22--0--0-0-0--0-0-0---| x2

VERSE: x2
eb|-------------------------------------------------------------|
Bb|-------------------------------------------------------------|
Gb|--4--4--4-4-4------------------4--4--4-4-4-------------------|
Db|--4--4--4-4-4-2--2-2-2--2-2-2--4--4--4-4-4-2--2-2-2--2-2-2---|
Ab|--2--2--2-2-2-2--2-2-2--2-2-2--2--2--2-2-2-2--2-2-2--2-2-2---|
Eb|--------------0--0-0-0--0-0-0--------------0--0-0-0--0-0-0---|


eb|-------------------------------------------------------------|
Bb|-------------------------------------------------------------|
Gb|--4--4--4-4-4------------------------------------------------|
Db|--4--4--4-4-4-2--2-2-2--2-2-2--4--4--4-4-4-4--4-4--4-4-4-4---|
Ab|--2--2--2-2-2-2--2-2-2--2-2-2--4--4--4-4-4-4--4-4--4-4-4-4---|
Eb|--------------0--0-0-0--0-0-0--2--2--2-2-2-2--2-2--2-2-2-2---|


CHORUS:
eb|--------------------------------|
Bb|--------------------------------|
Gb|--2--2--------4--4-4-4--4-4-4---|
Db|--2--2--22----4--4-4-4--4-4-4---|x3
Ab|--0--0--22----2--2-2-2--2-2-2---|
Eb|--------00----------------------|


eb|----------------------------------|
Bb|----------------------------------|
Gb|--2--2-2-2-2-2-2------------------|
Db|--2--2-2-2-2-2-2-2--2-2-2-2-2-2---|
Ab|--0--0-0-0-0-0-0-2--2-2-2-2-2-2---|
Eb|-----------------0--0-0-0-0-0-0---|


Intro:
eb|--------------------------------|    |----------------|
Bb|--------------------------------|    |----------------|
Gb|--4--4--4-----------------------|    |----------------|
Db|--4--4--4-44--2--2-2-2--2-2-2---|    |--4-------------|~~~~~~~~~~~ let this ring out
Ab|--2--2--2-44--2--2-2-2--2-2-2---|    |--4-------------|~~~~~~~~~~~ w/ slight feedback
Eb|----------22--0--0-0-0--0-0-0---| x4 |--2~~~~~~~~~~~~-|

Bass Solo (translated for guitar)
|----------------|------------------|
|-----4------4---|-------2-------2--|
|----------------|------------------|
|--2------2------|---0-------0------| Mike plays this basically forever

Then Billie kicks in w/:
eb|----------------------------------------------------------------|
Bb|----------------------------------------------------------------|
Gb|--11-11~~~~~~~~~---11-11~~~~~~~~~---11-11------------11-11~~~~~~|
Db|--11-11~~~~~~~~~---11-11~~~~~~~~~---11-119h11--9h11--11-11~~~~~~|
Ab|---9--9~~~~~~~~~---9--9~~~~~~~~~~---9--9-------------9--9~~~~~~~|
Eb|----------------------------------------------------------------|

eb|------------------------------------------|
Bb|------------------------------------------|
Gb|--11-11-11-/-9-9-9-/-11-11-11-/--9-9-9\---|
Db|--11-11-11-/-9-9-9-/-11-11-11-/--9-9-9\---|
Ab|---9--9--9-/-7-7-7-/-9--9--9--/--7-7-7\---|
Eb|------------------------------------------|

eb|----------------------|-------------------------|
Bb|----------------------|-------------------------|
Gb|----------------------|-------------------------|
Db|--/44---22---44---22--|-4444444444444444444444--|
Ab|--/44---22---44---22--|-4444444444444444444444--|
Eb|--/22---00---22---00--|-2020202020202020202020--|
                          /\this part VERY fast

eb|--------------------------------------------------------|
Bb|--------------------------------------------------------|
Gb|--/16--16--16--16--/6--16--16--16--/6--16--16--16--16---|
Db|----x---x---x---x---x---x---x---x---x---x---x---x---x---| repeat many
Ab|--/14--14--14--14--/4--14--14--14--/4--14--14--14--14---| times
Eb|--------------------------------------------------------|

eb|-----------------|
Bb|-----------------|
Gb|------11~~~~~~---|
Db|--44--11~~~~~~---|
Ab|--44--9~~~~~~~---|
Eb|--22-------------|

Lyrics:
Billie-how lovely
Mike-yah we suggest you through muddddddddd thats fun
Billie-through mud at each other. see how many stupid things you can do at each other at 1 time
Mike: hey thanks
Billie: Thanks a lot
Mike: looks like dookie from here
Billie: ah sh*t! Its caca, poo poo.sh*t ITS sh*t! ITS sh*t sh*t! I HATE GOD sh*t! AH nice shot
Mike: its at each other! cmon!
Billie: anyways this next song is um ah ah um ah its ah called chump
[i just wasted so much space typing that haha i have no life]

VERSE
GO!
I don't know you
But, I think I HATE you
You're the reason for my misery
Strange how you've become my biggest enemy
And I've never even seen your face

CHORUS
Maybe it's just jealousy
Mixing up with a VIOLENT mind
A circumstance that doesn't make much SENSE
Or maybe I'm just DUMB

VERSE
You're the cloud hanging out over my head
Hail comes crashing down welting my face
MAGIC MAN, EGOCENTRIC PLASTIC MAN
Yet you still got one over on me

CHORUS
Maybe it's just jealousy
Mixing up with a VIOLENT mind
A circumstance that doesn't make much SENSE
Or maybe I'm just DUMB

I'm a chump!

ARGH! HUH! (and there's some more screaming)
            

comments powered by Disqus
↑ Back to top | Green Day Tabs for Chump. Lyrics for acoustic guitar and electric guitar. Tablatures and chords are parodies/interpretations of the original songs. You may use it for private study, scholarship, research or language learning purposes only