» » »

Green Day, Chump Bass tabs (ver.1)

Artists:  A B C D E F G H I J K L M N O P Q R S T U V W X Y Z # 

Chump Bass tabs (ver.1)

Green Day Tabs
Rating:
0/5 (0 votes)
Chump  lessons Tabs too difficult? Try these video lessons and learn fast
                (2)
Intro/Bridge
Gb----------------------------------------I
Db----------------------------------------I
Ab--2-2-2-2-0----------2-2-2-2-0----------I
Eb------------2-2-2-2------------2-2-2-2--I

Verse		            x 2
Gb---------------------------------------|-------------------------------I
Db---------------------------------------|-------------------------------I
Ab--2-2-2-2-0----------2-2-2-2-0---------|--2-2-2-2----------------------I
Eb------------2-2-2-2------------2-2-2-2-|----------0-0-0-0-2-2-2-2-2-2--I

Chorus	         X3 
Gb---------------------|-----------I
Db---------------------|-----------I
Ab--0-0-0-0---2-2-2-2--|--0-0------I
Eb----------0----------|------0-0--I

Solo/Outro	             x 18 (Play this till guitar stops)
Gb---------------------------|-----------------------------I
Db------4-----4-----2---1h2--|--4-4-4-4-4-4-4-4-4-4-4-4-4--I
Ab---------------------------|-----------------------------I
Eb--2-2---2-2---0-0----------|-----------------------------I

Song Order:
Intro      X 1
Verse      X 2
Chorus     X 1
Bridge     X 1
Verse      X 2
Chorus     X 1
Bridge     X 2
Solo/Outro X 1
            
Submit corrections

comments powered by Disqus
↑ Back to top | Green Day Bass for Chump. Lyrics for acoustic guitar and electric guitar. Tablatures and chords are parodies/interpretations of the original songs. You may use it for private study, scholarship, research or language learning purposes only