» » »

Green Day, Chump Tabs (ver.5)

Artists:  A B C D E F G H I J K L M N O P Q R S T U V W X Y Z # 

Chump Tabs (ver.5)

Green Day Tabs
 Rating:
4/5 (4 votes)
Chump lessons Tabs too difficult? Try these video lessons and learn fast
1
                Band: Green Day
Tuning: half-step down

Intro:0:00-0:05
eb|------------000000-------------|
Bb|------------000000-------------|
Gb|-4-4-444--1-111111-------------|
Db|-4-4-444--2-222222--(x2)-------|
Ab|-2-2-222--2-222222-------------|
Eb|----------0-000000-------------|

Verse:0:05-0:27
eb|------------000000---------------------------|
Bb|------------000000---------------------------|
Gb|-4-4-444--1-111111---------------------------|
Db|-4-4-444--2-222222-(x3)-4-4-444444444--------|(x2)
Ab|-2-2-222--2-222222------4-4-444444444--------|
Eb|----------0-000000------2-2-222222222--------|

Chorus:0:28-0:35           0:35-0:38
eb|----00-----------------|---------------------|
Bb|----00-----------------|---------------------|
Gb|-22-11---4-44-444------|-2-2-222-1-1-111-----|
Db|-22-22-0-4-44-444-(X3)-|-2-2-222-2-2-222-----|
Ab|-00-22-0-2-22-222------|-0-0-000-2-2-222-----|
Eb|----00-0---------------|---------0-0-000-----|

Intro:0:39-0:43
eb|------------000000-------------|
Bb|------------000000-------------|
Gb|-4-4-444--1-111111-------------|
Db|-4-4-444--2-222222--(x2)-------|
Ab|-2-2-222--2-222222-------------|
Eb|----------0-000000-------------|

Verse:0:44-1:04
eb|------------000000---------------------------|
Bb|------------000000---------------------------|
Gb|-4-4-444--1-111111---------------------------|
Db|-4-4-444--2-222222-(x3)-4-4-444444444--------|(x2)
Ab|-2-2-222--2-222222------4-4-444444444--------|
Eb|----------0-000000------2-2-222222222--------|

Chorus:1:05-1:15
eb|----00-----------------|---------------------|
Bb|----00-----------------|---------------------|
Gb|-22-11---4-44-444------|-2-2-222-1-1-111-----|
Db|-22-22-0-4-44-444-(X3)-|-2-2-222-2-2-222-----|
Ab|-00-22-0-2-22-222------|-0-0-000-2-2-222-----|
Eb|----00-0---------------|---------0-0-000-----|

Intro:1:16-1:26
eb|------------000000-----------------|
Bb|------------000000-----------------|
Gb|-4-4-444--1-111111-----------------|
Db|-4-4-444--2-222222--(x4)-4~~~------|
Ab|-2-2-222--2-222222-------4~~~------|
Eb|----------0-000000-------2~~~------|

1:27-1:48
Bass Riff

Outro(part I): 1:49        2:00               2:06          2:09       
eb|---------------------|---------------|--------------|----------------|
Bb|---------------------|---------------|--------------|----------------|
Gb|-11-11-11~~~---------|-11-11-11~~~---|-11-11-11~~~--|-11-11-11~~~----|
Db|-11-11-11~~~---------|-11-11-11~~~---|-11-11-11~~~--|-11-11-11~~~----|
Ab|-9--9--9~~~----------|-9--9--9-~~~---|-9--9--9-~~~--|-9--9--9-~~~----|
Eb|---------------------|---------------|--------------|----------------|

Outro(part II)
Gtr I 2:11-2:19(every time faster)
eb|---------------------|
Bb|---------------------|
Gb|-11~~~-------9~~~----|
Db|-11~~~-------9~~~----|
Ab|-9-~~~-------7~~~----|
Eb|---------------------|

Gtr II 2:11-2:19 (every time faster)
eb|----------------------------------|
Bb|----------------------------------|
Gb|----------------------------------|
Db|-4-4-4~~~-------2-2-2~~~----------|
Ab|-4-4-4~~~-------2-2-2~~~----------|
Eb|-2-2-2~~~-------0-0-0~~~----------|

Outro(part III)
Gtr I (faster)2:20-2:38
eb|----------------------------|
Bb|----------------------------|
Gb|-11-11-11-11-11-11-11-11-11-|
Db|-11-11-11-11-11-11-11-11-11-|
Ab|-9--9--9--9--9--9--9--9--9--|
Eb|----------------------------|

Gtr II (realy faster) 2:23-2:38
eb|----------------------------------------|
Bb|----------------------------------------|
Gb|--11/-16-16-16-16-16-16-16-16-16-16-----|
Db|--x-/-x--x--x--x--x--x--x--x--x--x------|(x11)
Ab|--9-/-14-14-14-14-14-14-14-14-14-14-----|
Eb|----------------------------------------|

gtr III 2:30-2:40(faster)
eb|-----------------------------------|
Bb|-----------------------------------|
Gb|-----------------------------------|
Db|--4-4-4-4-4-4-4-4-4-4-4-4-4-4------|
Ab|--4-4-4-4-4-4-4-4-4-4-4-4-4-4------|
Eb|--2-2-2-2-2-2-2-2-2-2-2-2-2-2------|
 

End: 2:41     2:42      2:43      2:45      2:46      2:50
eb|--------|---------|---------|---------|---------|------------|
Bb|--------|---------|---------|---------|---------|------------|
Gb|--------|---------|---------|---------|---------|------------|
Db|-4~-----|--4~-----|--4~-----|--4~-----|--4~-----|--4~--------|
Ab|-4~-----|--4~-----|--4~-----|--4~-----|--4~-----|--4~--------|
Eb|-2~-----|--2~-----|--2~-----|--2~-----|--2~-----|--2~--------|

Ends with drums and intro Longview

That's all, It's very simple

Enjoy it!
            
Submit corrections

comments powered by Disqus
↑ Back to top | Green Day Tabs for Chump. Lyrics for acoustic guitar and electric guitar. 1 Tablatures and chords are parodies/interpretations of the original songs. You may use it for private study, scholarship, research or language learning purposes only