>
 >
Christians Inferno

Christians Inferno Guitar Tabs

Green Day - Christians Inferno chords, tabs, tablatures, lyrics

Guitar lessons | Add/correct | Request | Top 50 tabs Artists:  A B C D E F G H I J K L M N O P Q R S T U V W X Y Z 0-9

Christians Inferno Guitar Tabs – Green Day

CD, Sheet music, Poster

Do you like Christians Inferno? Share with your friends now
Bass TabsBass Tabs v2ChordsChords v2TabsTabs v2Tabs v3Tabs v4Ukulele
Sorry Guys I did this without the solo, this is my first tab too
Enjoy, commment and or correct please! =)

Standard Tuning!

Intro: it's actually the bassline

 e|---------------------------------------------------------------|
 B|---------------------------------------------------------------|
 G|---------------------------------------------------------------|
 D|---------------------------------------------------------------|
 A|--------------10-10-10-10-10-10-10-----------------------------|
 E|7-7-7-7-7-7-7----------------------8-8-8-8-8-8-8-7-7-7-7-7-7-7-|

Pre-Chorus: when the Guitar comes in (...like a flood!!)

 e|-------|
 B|-------|
 G|-------|
 D|---7---| X7
 A|---7---|
 E|---5---|

Chorus: Each Chord played 7 times


 e|--------------------------|
 B|--------------------------|
 G|--7-----------7-----------|
 D|--7-----7-----7-----5-----| Repeat this 4 times
 A|--5-----7-----5-----5-----|
 E|--------5-----------3-----|

Pre-verse: Each chord played 7 times


 e|------------------------|
 B|------------------------|
 G|--------12--------------|
 D|--9-----12-----10----5--| Play this twice
 A|--9-----10-----10----5--|
 E|--7------------8-----7--|


Play the Pre-Chorus and the Chorus,and the Pre-verse

Bridge(During Solo):

before you play this do a slide from the 12th fret on the thick E string


 e|------------------------------------------------------------------|
 B|------------------------------------------------------------------|
 G|-----------------9-9-9-9-9-9-9-----------10-10-10-10--------------|
 D|--9-9-9-9-9-9-9--9-9-9-9-9-9-9-10-10-10--10-10-10-10-9-9-9-9-9-9-9| 4X
 A|--9-9-9-9-9-9-9--7-7-7-7-7-7-7-10-10-10--8--8--8--8--9-9-9-9-9-9-9|
 E|--7-7-7-7-7-7-7----------------8--8--8---------------7-7-7-7-7-7-7|

Play Chorus =)

Outro:

 e|------------------------|
 B|------------------------|
 G|--12-------10-----------|
 D|--12(4X)---10(4x)-------| Play this 4 times
 A|--10-------8------------|
 E|------------------------|

Then:

 e|------------------------|
 B|------------------------|
 G|--12-----10-------------|
 D|--12(2X)-10(2X)---------| Play Twice
 A|--10-----8--------------|
 E|------------------------|

Then End on:


 e|------|
 B|------|
 G|------|
 D|--9---|
 A|--9---| Play once *with delay effect if you will =)*
 E|--7---|

That's it,
and Again I'm Sorry I didn't enclude the Solo!





Comments


Popular Green Day tabs & chords
2000 Light Years Away Bass Tabs
80  Bass Tabs
Disappearing Boy Bass Tabs
Dominated Love Slave Bass Tabs
Brain Stew 1 Chords
Alone Tabs
Fashion Victim 1 Tabs
Nice Guys Finsh Last Tabs
Rotting 1 Tabs
Walking Contradictin Tabs


Song lyrics



↑ Back to top | Tablatures and chords are parodies/interpretations of the original songs. You may use it for private study, scholarship, research or language learning purposes only
© 2014 AZChords.com Contact us | Privacy policy | DMCA | Add/correct tabs | Request tabs | Top 50 tabs