» » »

Brat Bass tabs (ver.3)

Artists:  A B C D E F G H I J K L M N O P Q R S T U V W X Y Z # 

Brat Bass tabs (ver.3)

Green Day
Rating:
0/5 (0 votes)

Tabs too difficult? Try these video lessons and learn fast.
                Verse
|----------------------|--------------------------|
|----------------------|--------------------------|
|------3-33------------|-3-33------55-5h7-5-4-----|
|-3-33------3333-2h333-|------3-33------------7-5-|

                       |--------------------------|
                       |-(play every other time)--|
                       |-3-33------55-44----------|
                       |------3-33-------77-55----|

Chorus
|----------------------------------------------|
|--------------------------------------5-4-----|
|-3-33------3-33------3-33------55-5h7-----7-5-|
|------3-33------3-33------3-33----------------|

|---------------------------------------------------------|
|----------------------------------------00000000-000-----|
|-3-33------3-33------3-33----------------------------320-|
|------3-33------3-33------3-33-11111111------------------|

Structure
Verse 2nd half x1
Verse x3
Chorus
Verse x4
Chorus
Verse x4
Chorus
            
Tabs too difficult? Try these video lessons and learn fast.




comments powered by Disqus
↑ Back to top | Tablatures and chords are parodies/interpretations of the original songs. You may use it for private study, scholarship, research or language learning purposes only