» » »

Boulevard Of Broken Dreams Bass tabs (ver.3)

Artists:  A B C D E F G H I J K L M N O P Q R S T U V W X Y Z # 

Boulevard Of Broken Dreams Bass tabs (ver.3)

Green Day
Rating:
0/5 (0 votes)

Hard to play? Try these video lessons and learn fast.
                Band: Green Day
Tuning: Standard


Note: Just like my perfect guitar version of this song, this is the perfect
bass version of this song, yeah the other versions are wrong..heh.... enjoy
////////////////////////////////////////////////////////////////////////////


INTRODUCTION

|----------------------------------------------|----------------------------------------|
|----------------------------------------------|----------------------------------------|
|----------------------------------------------|----------------------------------------|
|----------------------------------------------|----------------------------------------|



FIRST VERSE AND SECOND VERSE

|----------------------------------------------|----------------------------------------|
|----------------------------------------------|----------------------------------------|
|----------------------------------------------|--6------6----6\1----1----1----1----0---|
|--1-------------1/4-----4-----4-----4---------|----------------------------------------|
|--Rhy. Fig. 1--					             --End Rhy. Fig. 1--|


	Play Rhy. Fig. 1 a total of 5 times before Chorus



CHORUS

|---------------------------------------------------|----------------------------------------------------|
|---------------------------------------------------|----------------------------------------------------|
|------------------------------6--6--(6)\1--1--1--3-|-4--4--4--4-4----------------6--6--6--6\------------|
|--1--1/4--4--4--4----------------------------------|---------------4--4--4--4-4-------------1--1--1--1--|
|--Rhy. Fig. 2                   --End Rhy. Fig. 2--||--Rhy. Fig. 3--                 --End Rhy. Fig. 3--|


|---------------------------------------------------|----------------------------------------------------|
|---------------------------------------------------|----------------------------------------------------|
|------------------------------6--6--(6)\1--1--1--3-|-4--4--4--4-4----------------6--6--6--6\------------|
|--1--1/4--4--4--4----------------------------------|---------------4--4--4--4-4-------------1--1--1--1--|



|----------------------------------------|
|----------------------------------------|
|--4---4---4---4--4----------------------|
|--------------------4---4---4---4--4-4--|



Then start over from the second verse

after the chorus the second time play Rhy. Fig. 1 once, when it sings "Ah, ah..."

then..


INTERLUDE

Play Rhy. Fig. 3 once

then after that play this at around (2:52)


|----------------------------------------------|----------------------------------------|
|----------------------------------------------|----------------------------------------|
|--4------4------------------------------------|--6----6----6----6\---------------------|
|-----------------------------4------4---------|---------------------1----1----1----1---|

|----------------------------------------------|----------------------------------------|
|----------------------------------------------|----------------------------------------|
|--4------4----------------------------------3-|-3--3--3--3--3--3--3--3--3--3--3----3---|
|-----------------------4----4-----------------|----------------------------------------|


then third verse play nothing and back to the chorus but's longer so I'll the third chorus here



THIRD CHORUS



|---------------------------------------------------|----------------------------------------------------|
|---------------------------------------------------|----------------------------------------------------|
|------------------------------6--6--(6)\1--1--1--3-|-4--4--4--4-4----------------6--6--6--6\------------|
|--1--1/4--4--4--4----------------------------------|---------------4--4--4--4-4-------------1--1--1--1--|


|---------------------------------------------------|----------------------------------------------------|
|---------------------------------------------------|----------------------------------------------------|
|------------------------------6--6--(6)\1--1--1--3-|-4--4--4--4-4----------------6--6--6--6\------------|
|--1--1/4--4--4--4----------------------------------|---------------4--4--4--4-4-------------1--1--1--1--|


|----------------------------------------|
|----------------------------------------|
|--4---4---4---4--4----------------------|
|--------------------4---4---4---4--4-4--|

add on...
       "someone up there will find me               til then I walk       alone"
|----------------------------------------------|---------------------------------------------------|
|----------------------------------------------|---------------------------------------------------|
|----6----6----6----6\------------------4----4-|--4----4--------------------3----3----3----3----3--|
|---------------------1----1----1---1----------|----------4----4----4----4-------------------------|




OUTRO

                                                 ________________________ _________________
                                                |1.,2.,3.                |4.
|-----------------------------------------------|------------------------|-----------------|
|o----------------------------------------------|-----------------------o|-----------------|
|o--------------4----4--4--6----6--6--5----5--5-|-----------------------o|-----------------|
|----1----1--1----------------------------------|-4----4--4--0----0--0---|--4---4---0---0--|





That's it. Its all here and it's 100%. So now I have given you the 100% guitar, and 100% bass.
I'm sorry if you get alittle mixed up, but it's all here and it's all 100%. So don't worry,
listen to the song and you'll get it.
            
Hard to play? Try these video lessons and learn fast. | Correct




comments powered by Disqus
↑ Back to top | Tablatures and chords are parodies/interpretations of the original songs. You may use it for private study, scholarship, research or language learning purposes only