» » »

Baby Eyes Tabs (ver.1)

Artists:  A B C D E F G H I J K L M N O P Q R S T U V W X Y Z # 

Baby Eyes Tabs (ver.1)

Green Day
Rating:
0/5 (0 votes)

Hard to play? Try these video lessons and learn fast.
                Instrument: Guitar
Submitter: GuitarPunk94

Feel free to rate + comment! Join the GreenDayCommunity(GDC) :-)

Standard Tuning



Key:
-  - Nothing
~  - Let notes ring
4b - Bend string to fret
/ - Slide up or down





  Intro:                        Verse 1:
|--------------------------------------------|
|--------------------------------------------|
|-4---------5-4b-4~--------5-4b-4~9-4------4-|
|-4-4-5-2-5-5------4-5-2-5-5------9-4--2-4-4-|
|-2-4-5-2-5-3------4-5-2-5-3------7-2--2-4-2-|
|---2-3-0-3--------2-3-0-3-------------0-2---|

                Chorus:
|-------------------------------------------|
|-------------------------------------------|
|-4-9-4------4------4-------4--------6------|
|-4-9-4--2-4-4--2-4-4-2-2-4-4--2-4-6-6--2-4-|
|-2-7-2--2-4-2--2-4-2-2-2-4-2--2-4-6-4--2-4-|
|--------0-2----0-2---0-0-2----0-2-4----0-2-|

                                Verse 2:
|--------------------------------------------|
|--------------------------------------------|
|-4---------5-4b-4~--------5-4b-4~9-4------4-|
|-4-4-5-2-5-5------4-5-2-5-5------9-4--2-4-4-|
|-2-4-5-2-5-3------4-5-2-5-3------7-2--2-4-2-|
|---2-3-0-3--------2-3-0-3-------------0-2---|

                Chorus:
|---------------------------------------------------|
|---------------------------------------------------|
|-4-9-4------4------4-------4--------6--------------|
|-4-9-4--2-4-4--2-4-4-2-2-4-4--2-4-6-6--2-4-2-4-2-4~|
|-2-7-2--2-4-2--2-4-2-2-2-4-2--2-4-6-4--2-4-2-4-2-4~|
|--------0-2----0-2---0-0-2----0-2-4----0-2-0-2-0-2~|

  Outro:
              |3x**********|
|----------------------------------|
|----------------------------------|
|-4---------5-4b-4~--------5-4b----|
|-4-4-5-2-5-5------4-5-2-5-5----9\-|
|-2-4-5-2-5-3------4-5-2-5-3----9\-|
|---2-3-0-3--------2-3-0-3------7\-|
            
Hard to play? Try these video lessons and learn fast. | Correct




comments powered by Disqus
↑ Back to top | Tablatures and chords are parodies/interpretations of the original songs. You may use it for private study, scholarship, research or language learning purposes only