» » »

Bab's Uvula Who? Bass tabs (ver.1)

Artists:  A B C D E F G H I J K L M N O P Q R S T U V W X Y Z # 

Bab's Uvula Who? Bass tabs (ver.1)

Green Day
Rating:
0/5 (0 votes)

Hard to play? Try these video lessons and learn fast.
                Tune 1/2 Step Down


                  INTRO
Gb---------------------------------------------------------
Db---------------------------------------------------------
Ab---------------------------------------------------------
Eb------------------------7-5-2*--------------------------- *=Let ring

 
                        VERSE
Gb---4---4--4-----4--4--4------4---------------------------
Db-------------2------------2------------------------------
Ab--2--2--2---0--2--2--2---0--2----------------------------
Eb---------------------------------------------------------(REPEAT)

                        CHORUS
Gb---------------------------------------------------------
Db-------------------22--------22--------------------------
Ab------------2222-00--22222-00----------------------------
Eb---------------------------------------------------------



                              Rate THIS TAB!
            
Hard to play? Try these video lessons and learn fast. | Correct




comments powered by Disqus
↑ Back to top | Tablatures and chords are parodies/interpretations of the original songs. You may use it for private study, scholarship, research or language learning purposes only