» » »

Android Tabs (ver.2)

Artists:  A B C D E F G H I J K L M N O P Q R S T U V W X Y Z # 

Android Tabs (ver.2)

Green Day
Rating:
0/5 (0 votes)

Hard to play? Try these video lessons and learn fast.
                green day
android

tune down 1/2 step and then some more...
but not 1 step
most of kerplunk is like that

you can play the A5 and B5 where ever you like but the
chord sounds better palmed if you root it on the e string
...on my guitar anyway...what a piece.

intro
-----------------------------------
-----------------------------------
--4-4-4-4-9-9-9-9------------------
--4-4-4-4-9-9-9-9-7-7-7-7-4-4-4-4--  find the rythem
--2-2-2-2-7-7-7-7-7-7-7-7-4-4-4-4--
------------------5-5-5-5-2-2-2-2--
intro cont.
-----------------------------------
-----------------------------------
--4-4-4-4---------2-2-2-2----------
--4-4-4-4-2-2-2-2-2-2-2-2-4-4-4-4--
--2-2-2-2-2-2-2-2-0-0-0-0-4-4-4-4--
----------0-0-0-0---------2-2-2-2--

intro w/ a different rythem
-----------------------------------
-----------------------------------
--4-4-4-4---------2-2-2-2----------
--4-4-4-4-2-2-2-2-2-2-2-2-4-4-4-4--
--2-2-2-2-2-2-2-2-0-0-0-0-4-4-4-4--
----------0-0-0-0---------2-2-2-2--

--------------------------------------------
--32 times----------------------------------
---------------------9-x-9-9-x-9-9-x-9-9-x--
-----9---------------9-x-9-9-x-9-9-x-9-9-x--  <-- all that twice
-----9---------------7-x-7-7-x-7-7-x-7-7-x--
-----7--------------------------------------
palm it for a long while

chorus
-----------------------------------
-----------------------------------
--4-4-4-4---------2-2-2-2----------
--4-4-4-4-2-2-2-2-2-2-2-2-4-4-4-4--
--2-2-2-2-2-2-2-2-0-0-0-0-4-4-4-4--
----------0-0-0-0---------2-2-2-2--
at the end of chorus 2 bust this little dilly
-------------------
-------------------
-------------------
--7-7-7-7-9-9-9-9-- find the rythem
--7-7-7-7-9-9-9-9--
--5-5-5-5-7-7-7-7--

slow pick slides kind of clean and
then a backwards one with fat dist.
also a simple melody i don't want to tab

brigde
--------------
--------------
--------------
--9--7--6--4--
--9--7--6--4--
--7--5--4--2--
            
Hard to play? Try these video lessons and learn fast. | Correct




comments powered by Disqus
↑ Back to top | Tablatures and chords are parodies/interpretations of the original songs. You may use it for private study, scholarship, research or language learning purposes only