» » »

Green Day, American Idiot Bass tabs (ver.2)

Artists:  A B C D E F G H I J K L M N O P Q R S T U V W X Y Z # 

American Idiot Bass tabs (ver.2)

Green Day Tabs
Rating:
0/5 (0 votes)
American Idiot lessons Tabs too difficult? Try these video lessons and learn fast
                
Tuning: EADG
  (INTRO) Start after guitar plays riff once!!!
G|--------------------------------------------------------------------------|
D|--------------------------------------------------------------------------|
A|--------4--4-4-----4-----------4--4-4-----4------------4--4-4-----4-------|
E|2-4-4-4--------2-2---4-X--4-4-4--------2-2---4-2--4-4-4--------2-2---4-X--|
  ^play this on last note on guitar riff
  (VERSE 1)  
G|-----------------------------------------------|
D|-----------------------------------------------|     X2 
A|-------4--4-4-----4------------4--4-4-----4----|
E|-4-4-4--------2-2---4-2--4-4-4--------2-2---4-X|
  (CHORUS)
G|--------------------------------------------------------------------------|
D|--------------------------------------------------------------------------|
A|-4444444444444444------------------66666666666666666----------------------|
E|------------------4444444444444444-------------------4444444444444444-----|
                                                           
G|-----------------------------------------------------S--------------------|
D|-----------------------------------------------------T--------------------|
A|-4444444444444444------------------6666666666666666--O--------------------|
E|------------------4444444444444444-------------------P--------------------|
  (BRIDGE) 
G|---------------------------------------------------|
D|---------------------------------------------------|
A|-------4--4-4-----4-------------4--4-4------4------|
E|-4-4-4--------2-2---4-2---4-4-4---------2-2---4-X--|
  (VERSE 2)
G|-----------------------------------------------|
D|-----------------------------------------------|     X2 
A|-------4--4-4-----4------------4--4-4-----4----|
E|-4-4-4--------2-2---4-2--4-4-4--------2-2---4-X|

 (CHORUS)
G|--------------------------------------------------------------------------|
D|--------------------------------------------------------------------------|
A|-4444444444444444------------------66666666666666666----------------------|
E|------------------4444444444444444-------------------4444444444444444-----|
                                                           
G|-----------------------------------------------------S--------------------|
D|-----------------------------------------------------T--------------------|
A|-4444444444444444------------------6666666666666666--O--------------------|
E|------------------4444444444444444-------------------P--------------------|

 (BRIDGE) 
G|---------------------------------------------------|
D|---------------------------------------------------|     X2
A|-------4--4-4-----4-------------4--4-4------4------|
E|-4-4-4--------2-2---4-2---4-4-4---------2-2---4-X--|
  (GUITAR SOLO)
G|--------------------------------------------------------------------------|
D|--------------------------------------------------------------------------|
A|-4444444444444444------------------66666666666666666----------------------|
E|------------------4444444444444444-------------------4444444444444444-----|
                                                           
G|-----------------------------------------------------S--------------------|
D|-----------------------------------------------------T--------------------|
A|-4444444444444444------------------6666666666666666--O--------------------|
E|------------------4444444444444444-------------------P--------------------|
  (VERSE 3) NO BASS
G|-R------------------------------------------------------------------------|
D|-E------------------------------------------------------------------------|
A|-S------------------------------------------------------------------------|
E|-T------------------------------------------------------------------------|

 (CHORUS)
G|--------------------------------------------------------------------------|
D|--------------------------------------------------------------------------|
A|-4444444444444444------------------66666666666666666----------------------|
E|------------------4444444444444444-------------------4444444444444444-----|
                                                           
G|-----------------------------------------------------S--------------------|
D|-----------------------------------------------------T--------------------|
A|-4444444444444444------------------6666666666666666--O--------------------|
E|------------------4444444444444444-------------------P--------------------|
  (OUTRO)
G|--------------------------------------------------------------------------|
D|--------------------------------------------------------------------------|
A|--------4--4-4-----4-----------4--4-4-----4------------4--4-4-----4-------|
E|2-4-4-4--------2-2---4-2--4-4-4--------2-2---4-X--4-4-4--------2-2---4-X--|

G|-R--------------|
D|-E--------------|
A|-S------444-----|
E|-T---------4----|

| /  slide up
| \  slide down
| h  hammer-on
| p  pull-off
| ~  vibrato
| +  harmonic
| x  Mute note
            
Submit corrections

comments powered by Disqus
↑ Back to top | Green Day Bass for American Idiot. Lyrics for acoustic guitar and electric guitar. Tablatures and chords are parodies/interpretations of the original songs. You may use it for private study, scholarship, research or language learning purposes only