» » »

409 In Your Coffeemaker Bass tabs (ver.1)

Artists:  A B C D E F G H I J K L M N O P Q R S T U V W X Y Z # 

409 In Your Coffeemaker Bass tabs (ver.1)

Green Day
Rating:
0/5 (0 votes)

Hard to play? Try these video lessons and learn fast.
                Intro
-----

G-------------
D------------- 4x
A--3-3-3------
E--------2-3--

Verse
-----

G-------------------
D-------------------
A-------------------
E--3-3-3-3-1-1-1-1--

Chorus
------

Play twice:

          3x
G|-------------------|---------------------
D|-------------------|---------------------
A|--3-3-3-3----------|--3-3-3-3-5-5-5-5-5--
E|----------3-3-3-3--|---------------------

Then back to intro
Then verse
Then chorus
Then intro

Bridge:
-------

G-----------------------
D----------------------- 2x
A------2-3-2-----0-1-0--
E--3-3-------1-1--------

G-------------
D------------- 4x
A-------------
E--3-3---1-1--

Then intro (under guitar solo)
Then chorus
Then intro

Outro
-----

G-------------
D------------- 4x
A-------------
E--3-3---1-1--
            
Hard to play? Try these video lessons and learn fast. | Correct




comments powered by Disqus
↑ Back to top | Tablatures and chords are parodies/interpretations of the original songs. You may use it for private study, scholarship, research or language learning purposes only